Войти
Навигация

Мини-чат
НаписалAragorn
4 апреля 2016
привет
НаписалVurf
1 марта 2016
шалом, бездельники!)
НаписалHohner
8 февраля 2016
https://www.youtube.com/watch?v=9
wG5oHsYkvA
НаписалHohner
8 февраля 2016
smile-03
Написалslaveckii77
24 января 2016
slaveckii77, Я тут))))
Написалslaveckii77
24 января 2016
Где все ??? ЭЭЭ народ?
Написалslaveckii77
24 января 2016
Где все ??? ЭЭЭ народ?
Написалslaveckii77
14 января 2016
Привет народ)
НаписалHohner
5 января 2016
Всем привет!
Написалsobolev
21 декабря 2015
ну не так часто тут и сидят...здрасте!

Только зарегистрированные пользователи могут отправлять сообщения.

Наша группа

0-9  A-Z  А  Б  В  Г  Д  Е  Ж  З  И  К  Л  М  Н  О  П  Р  С  Т  У  Ф  Х  Ц  Ч  Ш  Щ  Ю  Я 

Просмотров: 38, Комментариев: 0
RIFF

G ---9--------9---------7~---------9----7---------------------
D -------9--------9--9-----------------------9----7---7--h9---


INTRO
E2 E2 D B



E2 B
If you're wondering why I've not been speaking my mind, Sir
E2 B
It took so long since I could promise my all
E2 B
My shapes of confusion take hold of frustration
E2 B
And there's nothing worse than being home on your own
Дата: 1-05-2016, 13:46, Добавил: Aurondel, Раздел: Иностранные
Просмотров: 35, Комментариев: 0

A Dsus4 Cadd9sus4 A Dsus4 Cadd9sus4
B---------------------------------------------------------|
G-------5h7-7b7-5b5---------------------5h7-7b7-5b5-------|
D--7-5h7-----------7--7h5----------7-5h7-----------7--7h5-|
A---------------------------------------------------------|
Дата: 1-05-2016, 13:23, Добавил: Aurondel, Раздел: Иностранные
Просмотров: 20, Комментариев: 0
A D C A
e----------------------------------------------------------------------------
B--2------------------------------3-----------------------------2------------
G--2----------------------------2-2-------------2-0-----------0-2------------
D--2----------------------------2-0-------------2-2-----------0-2------------
A--0----------------------------0-0-------------0-3-----------x-0------------
E-------------------------------------------------------------3--------------
Дата: 1-05-2016, 12:35, Добавил: Aurondel, Раздел: Иностранные
Просмотров: 20, Комментариев: 0
Intro
C G Am C G Am

F G
Get your boots off skinhead

C Em Am
So you think I have an evil mind well I`ll tell you honey
F C G F C G
and I dont know why , and I dont know why
C Em Am
So you think my singing out of time , well it makes me money
Дата: 1-05-2016, 12:19, Добавил: Aurondel, Раздел: Иностранные
Просмотров: 21, Комментариев: 0
Intro:

E|----------------------------------------------|
B|----------------------------------------------|
G|----------------------------------------------| *4
A|--------------------2---0--------4------0---2-|
D|-----------------2------------2-------2-------|
E|-0-------3---4--------------------------------|
Дата: 1-05-2016, 12:12, Добавил: Aurondel, Раздел: Иностранные
Просмотров: 18, Комментариев: 0
A2 C#7 D E D E
E|--5-x-5-x-5-x-5--4-x-4-x-4-x-4--2---2-0-2--0---0-0-0--0--0--0--0--0---0--0-|
B|--5-x-5-x-5-x-5--6-x-6-x-6-x-6--3---3-3-3--0---0-0-0--3--3--3--3--0---0--0-|
G|--6-x-6-x-6-x-6--4-x-4-x-4-x-4--2---2-2-2--1---1-1-1--2--2--2--2--1---1--1-|
D|--7-x-7-x-7-x-7--6-x-6-x-6-x-6--0---0-0-0--2---2-0-2--0--0--0--0--2---2--2-|
A|--7-x-7-x-7-x-7--4-x-4-x-4-x-4-------------2---2-2-2--------------2---2--2-|
E|--5-x-5-x-5-x-5----------------------------0---0-0-0--------------0---0--0-|
Дата: 30-04-2016, 17:46, Добавил: Aurondel, Раздел: Иностранные
Просмотров: 24, Комментариев: 0
Intro:

A C#7 D E Dsus2 E7 D7 A Dsus2

A C#7 D E
What a life it would be, if you could come to mine for tea,

Dsus2 E7 D7 A Dsus2
I'll pick you up at half past three, we'll have lasagne,

A C#7 D E
I'll treat you like a queen, I'd feed you strawberrys and cream,
Дата: 30-04-2016, 17:24, Добавил: Aurondel, Раздел: Иностранные

Для кого-то музыка - просто приятный фон для работы или отдыха, для кого-то другого - смысл жизни. Кому-то нравятся простенькие и незамысловатые мелодии и тексты песен, кто-то другой приходит в восторг, когда слышит сложные тяжёлые гитарные рифы. У всех людей различные музыкальные предпочтения, но одно можно утверждать наверняка: очень сложно найти человека, который был бы равнодушен к музыке. Но что сделать ещё сложнее - представить компанию людей, отдыхающую на природе или даже в квартире, среди которых нет хотя бы одного человека с гитарой.А где гитара - там всегда песни: хором или соло, быстрые или медленные, весёлые или грустные. На нашем сайте мы постарались собрать самые лучшие аккорды песен под гитару. И у нас это неплохо вышло. Наш каталог содержит огромнейшее количество песен всех жанров: от незамысловатых дворовых песен, исполнение которых освоит любой начинающий гитарист, до классики мирового рока, с которой справится только музыкант-профи. От серьёзных военных музыкальных историй до лёгких лирических и просто прикольных песен, которые развеселят любую компанию. От репертуара звёзд мировой величины до молодых и пока ещё неизвестных авторов.

Хотите ли вы выучить новую песню или вспомнить аккорды ранее изученной - этот сайт для вас.

Любую песню, аккорды которой представлены на нашем сайте, вы можете тут же и прослушать через удобный встроенный в веб-страницу плеер, чтобы решить, стоит ли вам её разучивать.

Скачав нужные вам аккорды, не забудьте посетить наш форум. Здесь вы всегда сможете получить пару-тройку советов по технике игры от более опытных музыкантов. Если же вы слишком хорошо разбираетесь в музыке, чтобы слушать советы, не поленитесь и поделитесь своими знаниями с новичками в "гитарном деле".

Музыка не имеет ни возраста, ни пола, ни национальности. Музыка - для всех. Если вы её фанат - добро пожаловать!

Популярные песни
  • Титаник
  • Пираты карибского моря
  • Все бабы суки бабы бляди
  • Над старым аулом
  • Ламбада
  • Солдат (из к/ф Мы из будущего)
  • Мальчишка-наркоман
  • Девочка не надо слезы лить напрасно
  • За Родину
  • Орленок - Звезды


  • Облако тегов
    , 8 марта, Ария, Армия, би-2, блядь, Война, Грусть, Дворовые, ддт, Звери, Измена, Иностранные, интересное, Кино, КиШ, Красиво, красивые мелодии, Кузя, лагерное, лагерь, Лирика, Любовь, Любэ, Многоточие, Наутилус Помпилиус, о жизни, песни, песня, под гитару, Приколы, прикольное, Разное, Расставание, Сектор газа, Слезы, Сплин, У костра, Чиж и Ко, Школа

    Показать все теги