Войти
Навигация

Мини-чат
НаписалВексель
7 августа 2016
Всем привет
НаписалAragorn
4 апреля 2016
привет
НаписалVurf
1 марта 2016
шалом, бездельники!)
НаписалHohner
8 февраля 2016
https://www.youtube.com/watch?v=9
wG5oHsYkvA
НаписалHohner
8 февраля 2016
smile-03
Написалslaveckii77
24 января 2016
slaveckii77, Я тут))))
Написалslaveckii77
24 января 2016
Где все ??? ЭЭЭ народ?
Написалslaveckii77
24 января 2016
Где все ??? ЭЭЭ народ?
Написалslaveckii77
14 января 2016
Привет народ)
НаписалHohner
5 января 2016
Всем привет!

Только зарегистрированные пользователи могут отправлять сообщения.

Наша группа

0-9  A-Z  А  Б  В  Г  Д  Е  Ж  З  И  К  Л  М  Н  О  П  Р  С  Т  У  Ф  Х  Ц  Ч  Ш  Щ  Ю  Я 

Просмотров: 1, Комментариев: 0
Riff A:
e||-------------------------------------||---------------------|
b||-------------------------------------||---------------------|
g||o-----------------------------------o||---------------------|
d||o------------0-0---0-2--------------o||---------------0-1-2-|
a||--2-2---0-2---------------------0-1--||-2---0h1-2-3-4-------|
Дата: Сегодня, 15:42, Добавил: Aurondel, Раздел: Иностранные
Просмотров: 0, Комментариев: 0
(intro)

Bb Ab Eb F

C Cm7 F
C Cm7 F
C Cm7 F
C Cm7 F
Дата: Сегодня, 15:34, Добавил: Aurondel, Раздел: Иностранные
Просмотров: 19, Комментариев: 0
Intro:
Riff 1:
Guitar 1: Play 4 times
D |---------------------------------------------------------3-|
A |-5----5--5--5--5--5----5--5--5--5--5----5--5--5--5--3------|
E |-----------------------------------------------------------|

Guitar 2: Play 4 times
E |------------|
B |------------|
G |------------|
D |-7---5---10-|
A |-5---3----8-|
E |------------|
Дата: Вчера, 22:34, Добавил: Aurondel, Раздел: Иностранные
Просмотров: 10, Комментариев: 0
Riff 1:
D C F
-----------------------|----------------------|
-----------------------|----------------------|
-----------------------|----------------------|
-0-0-0-0-0--0-0-0-0-0--|-0-0-0-0-0-------3----|
-----------------------|-------------3--------|
-----------------------|----------------------|
Дата: Вчера, 21:51, Добавил: Aurondel, Раздел: Иностранные
Просмотров: 13, Комментариев: 0
Intro
Sec 1
E |-----------------------------------------------|
B |----------------------7--7---------------------|
G |----5----7----5----7-7v-7-----5----7---5-----2-|
D |----5----7----5----7----------5----7---5-----2-| play 4 times
A |-00---00---00--00----------00---00--00---00--0-|
E |-----------------------------------------------|
Дата: Вчера, 21:34, Добавил: Aurondel, Раздел: Иностранные
Просмотров: 25, Комментариев: 0
Riff 1:
E -------------------|
B -------------------|
G ---------------2---|
D -------4-----0-----|
A -----2-------------|
E ---0-----3---------|
Дата: 23-09-2016, 23:38, Добавил: Aurondel, Раздел: Иностранные
Просмотров: 16, Комментариев: 0
intro

-12-0-0-0-0-7--0-0-0-0-8--0-0-0-0-5--0-0-0-0-7p0-0-0-3p0-0-0--5--0-0-0-0-2-|
---------------------------------------------------------------------------|
---------------------------------------------------------------------------|
---------------------------------------------------------------------------|
---------------------------------------------------------------------------|
---------------------------------------------------------------------------|
Дата: 23-09-2016, 23:26, Добавил: Aurondel, Раздел: Иностранные

Для кого-то музыка - просто приятный фон для работы или отдыха, для кого-то другого - смысл жизни. Кому-то нравятся простенькие и незамысловатые мелодии и тексты песен, кто-то другой приходит в восторг, когда слышит сложные тяжёлые гитарные рифы. У всех людей различные музыкальные предпочтения, но одно можно утверждать наверняка: очень сложно найти человека, который был бы равнодушен к музыке. Но что сделать ещё сложнее - представить компанию людей, отдыхающую на природе или даже в квартире, среди которых нет хотя бы одного человека с гитарой.А где гитара - там всегда песни: хором или соло, быстрые или медленные, весёлые или грустные. На нашем сайте мы постарались собрать самые лучшие аккорды песен под гитару. И у нас это неплохо вышло. Наш каталог содержит огромнейшее количество песен всех жанров: от незамысловатых дворовых песен, исполнение которых освоит любой начинающий гитарист, до классики мирового рока, с которой справится только музыкант-профи. От серьёзных военных музыкальных историй до лёгких лирических и просто прикольных песен, которые развеселят любую компанию. От репертуара звёзд мировой величины до молодых и пока ещё неизвестных авторов.

Хотите ли вы выучить новую песню или вспомнить аккорды ранее изученной - этот сайт для вас.

Любую песню, аккорды которой представлены на нашем сайте, вы можете тут же и прослушать через удобный встроенный в веб-страницу плеер, чтобы решить, стоит ли вам её разучивать.

Скачав нужные вам аккорды, не забудьте посетить наш форум. Здесь вы всегда сможете получить пару-тройку советов по технике игры от более опытных музыкантов. Если же вы слишком хорошо разбираетесь в музыке, чтобы слушать советы, не поленитесь и поделитесь своими знаниями с новичками в "гитарном деле".

Музыка не имеет ни возраста, ни пола, ни национальности. Музыка - для всех. Если вы её фанат - добро пожаловать!

Популярные песни
  • Титаник
  • Пираты карибского моря
  • Все бабы суки бабы бляди
  • Над старым аулом
  • Ламбада
  • Солдат (из к/ф Мы из будущего)
  • За Родину
  • Мальчишка-наркоман
  • Девочка не надо слезы лить напрасно
  • Орленок - Звезды


  • Облако тегов
    , 8 марта, Noize MC, Агата Кристи, Ария, Армия, би-2, блядь, Война, Грусть, Дворовые, ддт, Звери, Измена, Иностранные, интересное, Кино, КиШ, Красиво, Кузя, лагерное, лагерь, Лирика, Любовь, Любэ, Многоточие, Наутилус Помпилиус, о жизни, Панк, песня, под гитару, Приколы, Разное, Расставание, Сектор газа, Слезы, Сплин, У костра, Чиж и Ко, Школа

    Показать все теги