Войти
Навигация

Мини-чат
НаписалAragorn
привет
НаписалVurf
шалом, бездельники!)
НаписалHohner
https://www.youtube.com/watch?v=9
wG5oHsYkvA
Написалslaveckii77
slaveckii77, Я тут))))
Написалslaveckii77
Где все ??? ЭЭЭ народ?
Написалslaveckii77
Где все ??? ЭЭЭ народ?
Написалslaveckii77
Привет народ)
НаписалHohner
Всем привет!
Написалsobolev
ну не так часто тут и сидят...здрасте!

Только зарегистрированные пользователи могут отправлять сообщения.

Наша группа

0-9  A-Z  А  Б  В  Г  Д  Е  Ж  З  И  К  Л  М  Н  О  П  Р  С  Т  У  Ф  Х  Ц  Ч  Ш  Щ  Ю  Я 

Просмотров: 26, Комментариев: 0
Intro. Heavy grunge distortion.
E|---1--1---0-1-2-1--2-----|
A|---3--3---2-3-4-3--4-----|
D|---3--3---2-3-4-3--4-----|
G|-------------------------|
B|-------------------------|
e|-------------------------|
Дата: 25-07-2016, 17:37, Добавил: Aurondel, Раздел: Иностранные
Просмотров: 18, Комментариев: 0
Tuning: C#, F#, B, E, G#, C#

Intro
E|--------------------------------
B|----------------5---------------
G|---1-----------------------4---- 4X
D|--------------------------------
A|----------------3--------------- w/ slight dist. & delay
E|---0-----------------------3----
Дата: 25-07-2016, 16:47, Добавил: Aurondel, Раздел: Иностранные
Просмотров: 28, Комментариев: 0
Обычная настройка(standart tuning).
Intro.
e|--------4--------|
B|-2-------------5-|
G|-----------------|
D|--------2--------|
A|-0-------------3-|
E|-----------------|
Дата: 25-07-2016, 16:38, Добавил: Aurondel, Раздел: Иностранные
Просмотров: 18, Комментариев: 0
Tuning: c# G# E B F# C#

Intro & Verse part 1
с#|-0--|-4----3---0-|
G#|-1--|-6----4---1-|
E-|-0--|-6----3---0-|
B-|-2--|-6----3---2-|
F#|-3--|-4----6---3-|
C#|----|------------|
Дата: 25-07-2016, 12:43, Добавил: Aurondel, Раздел: Иностранные
Просмотров: 17, Комментариев: 0
Intro
C#-------------------------------------------------------------
G#-----------5-------------------------------------------------
E----1-------0-------4-----------------------------------------
B----2---------------5-----------------------------------------
F#---2-------3-------5-----------------------------------------
C#-------------------3-----------------------------------------
Дата: 25-07-2016, 12:17, Добавил: Aurondel, Раздел: Иностранные
Просмотров: 16, Комментариев: 0
ВСТУПЛЕНИЕ:

e|-------------------|
B|-------------------|
G|---4-----4---2-----| х2 - (Вступление играется два раза)
D|-------------------| Затем играется на притяжении всего
A|-2---2-----0---0---| куплета до припева.
E|-------3---------1-|
Дата: 25-07-2016, 11:39, Добавил: Aurondel, Раздел: Иностранные
Просмотров: 16, Комментариев: 0
Лучше с медиатором:
C#|---------------------------------------------------------|
G#|---------------------------------------------------------|
E-|------7----------------7--------------------5------------|
B-|---------------------------------------------------------|
F#|-5-------5-----------------------------3---------3-------|
C#|----------------6------------0-------------------------4-|
Дата: 25-07-2016, 11:21, Добавил: Aurondel, Раздел: Иностранные

Для кого-то музыка - просто приятный фон для работы или отдыха, для кого-то другого - смысл жизни. Кому-то нравятся простенькие и незамысловатые мелодии и тексты песен, кто-то другой приходит в восторг, когда слышит сложные тяжёлые гитарные рифы. У всех людей различные музыкальные предпочтения, но одно можно утверждать наверняка: очень сложно найти человека, который был бы равнодушен к музыке. Но что сделать ещё сложнее - представить компанию людей, отдыхающую на природе или даже в квартире, среди которых нет хотя бы одного человека с гитарой.А где гитара - там всегда песни: хором или соло, быстрые или медленные, весёлые или грустные. На нашем сайте мы постарались собрать самые лучшие аккорды песен под гитару. И у нас это неплохо вышло. Наш каталог содержит огромнейшее количество песен всех жанров: от незамысловатых дворовых песен, исполнение которых освоит любой начинающий гитарист, до классики мирового рока, с которой справится только музыкант-профи. От серьёзных военных музыкальных историй до лёгких лирических и просто прикольных песен, которые развеселят любую компанию. От репертуара звёзд мировой величины до молодых и пока ещё неизвестных авторов.

Хотите ли вы выучить новую песню или вспомнить аккорды ранее изученной - этот сайт для вас.

Любую песню, аккорды которой представлены на нашем сайте, вы можете тут же и прослушать через удобный встроенный в веб-страницу плеер, чтобы решить, стоит ли вам её разучивать.

Скачав нужные вам аккорды, не забудьте посетить наш форум. Здесь вы всегда сможете получить пару-тройку советов по технике игры от более опытных музыкантов. Если же вы слишком хорошо разбираетесь в музыке, чтобы слушать советы, не поленитесь и поделитесь своими знаниями с новичками в "гитарном деле".

Музыка не имеет ни возраста, ни пола, ни национальности. Музыка - для всех. Если вы её фанат - добро пожаловать!

Популярные песни
  • Титаник
  • Пираты карибского моря
  • Все бабы суки бабы бляди
  • Над старым аулом
  • Ламбада
  • Солдат (из к/ф Мы из будущего)
  • Мальчишка-наркоман
  • За Родину
  • Девочка не надо слезы лить напрасно
  • Орленок - Звезды


  • Облако тегов
    , 8 марта, Ария, Армия, би-2, блядь, Бутусов, Война, Грусть, Дворовые, ддт, Жуки, Звери, Измена, Иностранные, интересное, Кино, КиШ, Красиво, Кузя, лагерное, лагерь, Лирика, Любовь, Любэ, Многоточие, Наутилус Помпилиус, о жизни, песня, Петлюра, под гитару, Приколы, Разное, Расставание, Сектор газа, Слезы, Сплин, У костра, Чиж и Ко, Школа

    Показать все теги