Войти
Навигация

Мини-чат
НаписалHohner
Сегодня в 02:06:53
https://www.youtube.com/watch?v=9
wG5oHsYkvA
НаписалHohner
Сегодня в 01:57:46
smile-03
Написалslaveckii77
24 января 2016
slaveckii77, Я тут))))
Написалslaveckii77
24 января 2016
Где все ??? ЭЭЭ народ?
Написалslaveckii77
24 января 2016
Где все ??? ЭЭЭ народ?
Написалslaveckii77
14 января 2016
Привет народ)
НаписалHohner
5 января 2016
Всем привет!
Написалsobolev
21 декабря 2015
ну не так часто тут и сидят...здрасте!
НаписалДениска
14 декабря 2015
Привет!!!
Написалslaveckii77
6 декабря 2015
сидят чуткарь

Только зарегистрированные пользователи могут отправлять сообщения.

Наша группа

0-9  A-Z  А  Б  В  Г  Д  Е  Ж  З  И  К  Л  М  Н  О  П  Р  С  Т  У  Ф  Х  Ц  Ч  Ш  Щ  Ю  Я 

Просмотров: 0, Комментариев: 0
( A-D-G-C-F-A)
(listen to song for structure)

-------------------------|----------------------------------------------------
-------------------------|----------------------------------------------------
-------------------------|----------------------------------------------------
-------------------------|----------------------------------------------------
--5h7---5h7---5h7---8-8--|----------------------------------------------------
------0-----0-----0------|----------------------------------------------------
Дата: Сегодня, 19:29, Добавил: Aurondel, Раздел: Иностранные
Просмотров: 0, Комментариев: 0
Tuning (low to high): Eb A D G B E

Intro:

E|-------------------------------------------------------------
B|-------------------------------------------------------------
G|-------------------------------------------------------------
D|--1-------1-------1-------1----------------------------------
A|----3-3-3---2-2-2---1-1-1---0-0-0----------------------------
Eb|-----------------------------------3-3-3-3-3-5-3------------
Дата: Сегодня, 19:24, Добавил: Aurondel, Раздел: Иностранные
Просмотров: 0, Комментариев: 0
Соло (вообще-то играется на синтезаторе, но можно и на гитаре):

e|----2---3-2-0-2-0-2-3-3-2-0-|
B|--0---0---------------------|
G|----------------------------|
D|----------------------------|
A|----------------------------|
E|----------------------------|
Дата: Сегодня, 19:16, Добавил: Aurondel, Раздел: Иностранные
Просмотров: 0, Комментариев: 0
| | | | | | | |
|--------------------------------|--------------------------------|
|--------------------------------|--------------------------------|
|----------------------------3---|4-------------------------------|
|--------------------------------|--------------------------------|
Дата: Сегодня, 17:49, Добавил: Aurondel, Раздел: Иностранные
Просмотров: 2, Комментариев: 0
Intro:

(seagulls and surf sound effects)

strings (arranged for guitar):

Db-5 Csus4 C Cm7 Bbsus4 Bb
|----------------|----------------|----------------|---------------|
|--8---8---8---8-|--8---8---8---8-|--8---8---8---8-|-6---6---6---6-|
|-10--10--10--10-|-10--10---9---9-|--8---8---8---8-|-8---8---7---7-|
|-11--11--11--11-|-10--10--10--10-|--8---8---8---8-|-8---8---8---8-|
|----------------|----------------|----------------|---------------|
|--9---9---9---9-|--8---8---8---8-|--8---8---8---8-|-6---6---6---6-|
Дата: Сегодня, 17:43, Добавил: Aurondel, Раздел: Иностранные
Просмотров: 1, Комментариев: 0
Tuning : E A D G Time Signature: 4/4

| | | | | | | |
|--------------------------------|--------------------------------|
|--------------------------------|--------------------------------|
|3-----------3---2-----------2---|0-----------0-------------------|
|--------------------------------|----------------3-----------3---|
Дата: Сегодня, 17:35, Добавил: Aurondel, Раздел: Иностранные
Просмотров: 2, Комментариев: 0
e|-3---3----3---3---0--0---0--0------2--2--3-|
B|-3---3----3---3---1--1---1--1------3--3--3-|
G|-0---0----0---0---0--0---2--0------4--2--2-|
D|-0---0----2---0---2--0---2--2------4--0--0-|
A|-2---0----2---2---3--2---0--0------2--0--0-|
E|-3---2----0---0---0--0---0--0------2--0--0-|
G G/F# Em7 Cm7? C C/G Am Am7? Bm D Dsus2

The general chord progression seems to just repeat around each verse and the
chorus as below

G G/F# Em7 Cm7?
We skipped the light fandango

C C/G Am Am7?
Turned cartwheels cross the floor
Дата: Сегодня, 17:32, Добавил: Aurondel, Раздел: Иностранные

Для кого-то музыка - просто приятный фон для работы или отдыха, для кого-то другого - смысл жизни. Кому-то нравятся простенькие и незамысловатые мелодии и тексты песен, кто-то другой приходит в восторг, когда слышит сложные тяжёлые гитарные рифы. У всех людей различные музыкальные предпочтения, но одно можно утверждать наверняка: очень сложно найти человека, который был бы равнодушен к музыке. Но что сделать ещё сложнее - представить компанию людей, отдыхающую на природе или даже в квартире, среди которых нет хотя бы одного человека с гитарой.А где гитара - там всегда песни: хором или соло, быстрые или медленные, весёлые или грустные. На нашем сайте мы постарались собрать самые лучшие аккорды песен под гитару. И у нас это неплохо вышло. Наш каталог содержит огромнейшее количество песен всех жанров: от незамысловатых дворовых песен, исполнение которых освоит любой начинающий гитарист, до классики мирового рока, с которой справится только музыкант-профи. От серьёзных военных музыкальных историй до лёгких лирических и просто прикольных песен, которые развеселят любую компанию. От репертуара звёзд мировой величины до молодых и пока ещё неизвестных авторов.

Хотите ли вы выучить новую песню или вспомнить аккорды ранее изученной - этот сайт для вас.

Любую песню, аккорды которой представлены на нашем сайте, вы можете тут же и прослушать через удобный встроенный в веб-страницу плеер, чтобы решить, стоит ли вам её разучивать.

Скачав нужные вам аккорды, не забудьте посетить наш форум. Здесь вы всегда сможете получить пару-тройку советов по технике игры от более опытных музыкантов. Если же вы слишком хорошо разбираетесь в музыке, чтобы слушать советы, не поленитесь и поделитесь своими знаниями с новичками в "гитарном деле".

Музыка не имеет ни возраста, ни пола, ни национальности. Музыка - для всех. Если вы её фанат - добро пожаловать!

Популярные песни
  • Титаник
  • Пираты карибского моря
  • Все бабы суки бабы бляди
  • Над старым аулом
  • Ламбада
  • Солдат (из к/ф Мы из будущего)
  • Девочка не надо слезы лить напрасно
  • Мальчишка-наркоман
  • Орленок - Звезды
  • За Родину


  • Облако тегов
    , 8 марта, Ария, Армия, би-2, блядь, Бутусов, Война, Грусть, Дворовые, ддт, Жуки, Звери, Измена, Иностранные, интересное, Кино, КиШ, Красиво, Кузя, лагерное, лагерь, Лирика, Любовь, Любэ, Многоточие, Наутилус Помпилиус, о жизни, песня, Петлюра, под гитару, Приколы, Разное, Расставание, Сектор газа, Слезы, Сплин, У костра, Чиж и Ко, Школа

    Показать все теги