Войти
Навигация

Мини-чат
НаписалAragorn
4 апреля 2016
привет
НаписалVurf
1 марта 2016
шалом, бездельники!)
НаписалHohner
8 февраля 2016
https://www.youtube.com/watch?v=9
wG5oHsYkvA
НаписалHohner
8 февраля 2016
smile-03
Написалslaveckii77
24 января 2016
slaveckii77, Я тут))))
Написалslaveckii77
24 января 2016
Где все ??? ЭЭЭ народ?
Написалslaveckii77
24 января 2016
Где все ??? ЭЭЭ народ?
Написалslaveckii77
14 января 2016
Привет народ)
НаписалHohner
5 января 2016
Всем привет!
Написалsobolev
21 декабря 2015
ну не так часто тут и сидят...здрасте!

Только зарегистрированные пользователи могут отправлять сообщения.

Наша группа

0-9  A-Z  А  Б  В  Г  Д  Е  Ж  З  И  К  Л  М  Н  О  П  Р  С  Т  У  Ф  Х  Ц  Ч  Ш  Щ  Ю  Я 

Просмотров: 4, Комментариев: 0
Intro

-------------------------------------------------------
---8B(10)--8B(10)~~~~~~~~~~~(8)P5----------------------
---------------------------------7B(9)~~~~~~~~~~~~~~~~-
-------------------------------------------------------
-------------------------------------------------------
-------------------------------------------------------
Дата: Вчера, 22:56, Добавил: Aurondel, Раздел: Иностранные
Просмотров: 7, Комментариев: 0
Verse
G |-----------|--7---7----|--6---6---|--6---6---|
D |-----------|-----------|----------|----------|
A |--7-7-7-7--|---5---5---|---4---4--|---4---4--|
E |-----------|-----------|----------|----------|
Дата: Вчера, 22:51, Добавил: Aurondel, Раздел: Иностранные
Просмотров: 5, Комментариев: 0
Intro
E|--3-----| R- e-----------------------|------0-------| -R-|
B|--3h5---| E B-----5-----------3-----|------1-------| E-|
G|--5-----| P G-----5-----------4-----|------2-------| P-|
D|--------| E D-----5-----------3-----|--------------| E-|
A|--3-----| A A--3--------------------|---0----------| A-|
E|--------| T- E--------------3--------|--------------| -T-|
Дата: Вчера, 22:19, Добавил: Aurondel, Раздел: Иностранные
Просмотров: 5, Комментариев: 0
e|-----------------|-----------------------|---------------|
B|-----------------|-----------------------|---------------|
G|-9-10-12-10-9----|-----------------------|-------9-------|
D|--------------10-|----9-10-12-10-9----9--|----10---12p10-|
A|-----------------|-10--------------10----|-12------------|
E|-----------------|-----------------------|---------------|
Дата: Вчера, 21:17, Добавил: Aurondel, Раздел: Иностранные
Просмотров: 7, Комментариев: 0
Intro:
C
C G Am Am x2

Verse:
C G
This is my time
Am Am
This is my tear
C G
I can see clearly now
Am
That this is not a place
Дата: Вчера, 21:08, Добавил: Aurondel, Раздел: Иностранные
Просмотров: 4, Комментариев: 0
Intro:
G|-----------------|----------------------|--------------------|
D|-----------------|----------------------|--------------------|
A|-5----5--4----4--|-------------------7--|-5----5--4--4-------|
E|-----------------|-3-----3--5--5-5h7----|-----------------7--|
Дата: Вчера, 17:13, Добавил: Aurondel, Раздел: Иностранные
Просмотров: 7, Комментариев: 0
E|----------------------------------------------------------|
B|----------------------------------------------------------|
G|-9-9-9/11-11-11-11/12-12-12-12/11-11-11-11/12-12-14-14-14-|
D|----------------------------------------------------------|
A|----------------------------------------------------------|
E|----------------------------------------------------------|
Дата: Вчера, 16:16, Добавил: Aurondel, Раздел: Иностранные

Для кого-то музыка - просто приятный фон для работы или отдыха, для кого-то другого - смысл жизни. Кому-то нравятся простенькие и незамысловатые мелодии и тексты песен, кто-то другой приходит в восторг, когда слышит сложные тяжёлые гитарные рифы. У всех людей различные музыкальные предпочтения, но одно можно утверждать наверняка: очень сложно найти человека, который был бы равнодушен к музыке. Но что сделать ещё сложнее - представить компанию людей, отдыхающую на природе или даже в квартире, среди которых нет хотя бы одного человека с гитарой.А где гитара - там всегда песни: хором или соло, быстрые или медленные, весёлые или грустные. На нашем сайте мы постарались собрать самые лучшие аккорды песен под гитару. И у нас это неплохо вышло. Наш каталог содержит огромнейшее количество песен всех жанров: от незамысловатых дворовых песен, исполнение которых освоит любой начинающий гитарист, до классики мирового рока, с которой справится только музыкант-профи. От серьёзных военных музыкальных историй до лёгких лирических и просто прикольных песен, которые развеселят любую компанию. От репертуара звёзд мировой величины до молодых и пока ещё неизвестных авторов.

Хотите ли вы выучить новую песню или вспомнить аккорды ранее изученной - этот сайт для вас.

Любую песню, аккорды которой представлены на нашем сайте, вы можете тут же и прослушать через удобный встроенный в веб-страницу плеер, чтобы решить, стоит ли вам её разучивать.

Скачав нужные вам аккорды, не забудьте посетить наш форум. Здесь вы всегда сможете получить пару-тройку советов по технике игры от более опытных музыкантов. Если же вы слишком хорошо разбираетесь в музыке, чтобы слушать советы, не поленитесь и поделитесь своими знаниями с новичками в "гитарном деле".

Музыка не имеет ни возраста, ни пола, ни национальности. Музыка - для всех. Если вы её фанат - добро пожаловать!

Популярные песни
  • Титаник
  • Пираты карибского моря
  • Все бабы суки бабы бляди
  • Над старым аулом
  • Ламбада
  • Солдат (из к/ф Мы из будущего)
  • За Родину
  • Мальчишка-наркоман
  • Девочка не надо слезы лить напрасно
  • Орленок - Звезды


  • Облако тегов
    , 8 марта, Алкоголь, Ария, Армия, би-2, блядь, Война, Грусть, Дворовые, ддт, Звери, Измена, Иностранные, интересное, Кино, КиШ, Красиво, красивые мелодии, Кузя, лагерное, лагерь, Лирика, Любовь, Любэ, Многоточие, Наутилус Помпилиус, о жизни, песня, под гитару, Приколы, прикольное, Разное, Расставание, Сектор газа, Слезы, Сплин, У костра, Чиж и Ко, Школа

    Показать все теги