Войти
Навигация

Наша группа

0-9  A-Z  А  Б  В  Г  Д  Е  Ж  З  И  К  Л  М  Н  О  П  Р  С  Т  У  Ф  Х  Ц  Ч  Ш  Щ  Ю  Я 

Просмотров: 164, Комментариев: 0
Intro (between verses and their subsequent choruses)
G F
E |-3----3----3----3--1-1-|
B |-----------------------|
G |---5----5----5---------|
D |---5----5----5---------|
A |-----------------------|
E |-----------------------|
Дата: 13-12-2016, 12:26, Добавил: Aurondel, Раздел: Иностранные
Просмотров: 144, Комментариев: 0
Chorus

When I was little boy In Grammar school Always went by the very best rule
But Evertime the bell would ring You'd catch me playing with my ding-a-ling

Chorus

G C D G
Once while climbing the garden wall, Slipped and fell had a very bad fall
G C D G
I fell so hard I heard birds sing, But I held on to My ding-a-ling
Дата: 13-12-2016, 12:16, Добавил: Aurondel, Раздел: Иностранные
Просмотров: 139, Комментариев: 0
INTRO:
gtr 1
E |----------------|--------------|----------------|------------|
B |----------------|6-------------|----------------|6-----------|
G |----------------|4-------------|----------------|4-----------|
D |------------5---|3-------------|------------5---|3--------/9-|
A |--------5h7-----|5-------------|--------5h7-----|5-----------|
E |----------------|3-------------|----------------|3-----------|
Дата: 13-12-2016, 12:02, Добавил: Aurondel, Раздел: Иностранные
Просмотров: 165, Комментариев: 0
G / / / 2 / / / 3 / /
D
Long-distance information, get me Memphis, Tennessee
Help me find the party who tried to get in touch with me
G
She could not leave her number, but I know who placed the call
D7 G
'Cause my uncle took a message and he wrote it on the wall
Дата: 13-12-2016, 11:22, Добавил: Aurondel, Раздел: Иностранные
Просмотров: 149, Комментариев: 0
Gtr I
E |-------------|------------|-------------||----------------|
B |-------------|-6--6-------|-6----6----6-||o----3-----3--o-|
G |----------3--|-5--5----3--|-5----5----5-||-----3-----3----|
D |----3h=5-----|------------|-------------||-----3-----3----|
A |-------------|------------|-------------||o-1-----------o-|
E |-------------|------------|-------------||--------1-------|
Дата: 12-12-2016, 22:53, Добавил: Aurondel, Раздел: Иностранные
Просмотров: 156, Комментариев: 0
A / / / 2 / / /
CHORUS:
Maybellene, why can't you be true
D7 A
Oh, Maybellene, why can't you be true
E7 D7 A
You've started back doin' the things you used to do
Дата: 12-12-2016, 22:20, Добавил: Aurondel, Раздел: Иностранные
Просмотров: 153, Комментариев: 0
intro:
E |--------------------------|
B |--------------------------|
G |----------10-10---10b-10b-|
D |------8---10-10-8-10b-10b-|
A |-8-10---------------------|
E |--------------------------|
Дата: 12-12-2016, 17:58, Добавил: Aurondel, Раздел: Иностранные



Популярные песни
  • Титаник
  • Пираты карибского моря
  • Все бабы суки бабы бляди
  • Над старым аулом
  • Ламбада
  • Солдат (из к/ф Мы из будущего)
  • Мальчишка-наркоман
  • За Родину
  • Орленок - Звезды
  • Девочка не надо слезы лить напрасно


  • Облако тегов
    , 8 марта, Ария, Армия, би-2, блядь, Валерий Скутин, Война, Грусть, Дворовые, ддт, Звери, Измена, Иностранные, интересное, Кино, КиШ, Красиво, Кузя, лагерное, лагерь, Лирика, Любовь, Любэ, ляпис трубецкой, Многоточие, Наутилус Помпилиус, о жизни, песни, песня, под гитару, Приколы, Разное, Расставание, Сектор газа, Слезы, Сплин, У костра, Чиж и Ко, Школа

    Показать все теги