Войти
Навигация

Мини-чат
Написалzhelinscky
23 октября 2016
привет всем заходите на портал гитаристов akkordmovi.com
Написалzhelinscky
23 октября 2016
всем привет заходите на новый портал гитаристов [leech=http://akkordmovi.com]akko
rdmovi.com[/leech]
НаписалВексель
7 августа 2016
Всем привет
НаписалAragorn
4 апреля 2016
привет
НаписалVurf
1 марта 2016
шалом, бездельники!)
НаписалHohner
8 февраля 2016
https://www.youtube.com/watch?v=9
wG5oHsYkvA
НаписалHohner
8 февраля 2016
smile-03
Написалslaveckii77
24 января 2016
slaveckii77, Я тут))))
Написалslaveckii77
24 января 2016
Где все ??? ЭЭЭ народ?
Написалslaveckii77
24 января 2016
Где все ??? ЭЭЭ народ?

Только зарегистрированные пользователи могут отправлять сообщения.

Наша группа

0-9  A-Z  А  Б  В  Г  Д  Е  Ж  З  И  К  Л  М  Н  О  П  Р  С  Т  У  Ф  Х  Ц  Ч  Ш  Щ  Ю  Я 

Просмотров: 0, Комментариев: 0
Main riff:
E A E A
------------------------------------------
------------------------------------------
-------------1-2--------------------------
-0h2---2-2---2-2--0h2--2-2--------------0--
-----------------------------5p4p0--0h2----
-----0-----0---------0-----0---------------
Дата: Сегодня, 12:25, Добавил: Aurondel, Раздел: Иностранные
Просмотров: 0, Комментариев: 0
(Amaj7 = x06650, Amaj7 [2] = x02120, C#m7 = x46454, Cdim = x3424x
has F#7 listed as 464544 = G#7 )

[ Amaj7 ] Little man with his [ B/A ] eyes on fire [ Cdim ]
And his smile so [ C#m7 ] bright [ B7 ]
[ Amaj7 ] In his hands are the [ B/A ] toys you gave [ Cdim ]
That fill his heart with de[ C#m7 ]light [ B7 ]
Дата: Сегодня, 12:07, Добавил: Aurondel, Раздел: Иностранные
Просмотров: 0, Комментариев: 0
Fill 1 : (guitar 2 fill)
e------------------------/7-5~-------------------------
b------------------------------/7--5~-----5~~---3~-----
g--------------------------------------6--------2~-----
d------------------------------------------------------
a------------------------------------------------------
e------------------------------------------------------
Дата: Сегодня, 11:33, Добавил: Aurondel, Раздел: Иностранные
Просмотров: 5, Комментариев: 0
Verse:
| A E/G# |F#m A | D A | E |
Would you know my name if I saw you in Heaven


| A E/G# |F#m A | D A | E |
Would it be the same if I saw you in Heaven

Chorus:
| F#m | C#/E# | Em | F# |
I must be strong and carry on
Дата: Сегодня, 11:11, Добавил: Aurondel, Раздел: Иностранные
Просмотров: 10, Комментариев: 0
e|---------|
B |---------|
G |---------|
D |---------|
A |---------|
E |-0--h2---|
Дата: Вчера, 18:58, Добавил: Aurondel, Раздел: Иностранные
Просмотров: 17, Комментариев: 0
Lick 1: (The Verse)

A Esus2 F#m F#m/E D A E
E |-------------------------------------------------------------|
B |---------2---5-----2---------2---------3-3-2-02--------------|
G |----------2-4-------2-------2-2-------2---2-------1---2---4--|
D |--------2-----2---4---4---------4---0---2---2-----2----------|
A |------0-----------------4---------4-----0-------2---2-4---5--|
E |0-2-4-------4---0-2-------0-------------------0---------0---0|
Дата: Вчера, 18:32, Добавил: Aurondel, Раздел: Иностранные
Просмотров: 10, Комментариев: 0
INTRO riff 1
e|--------------|------------------------------------------|
B |--------------|*--7--5-----7-------------5b----5b-------*|
G |--------------|---7--5--7--7-------------5b----5b--------|
D |-------5~--7--|---------7---------5--7------7-------5--7-|
A |--/7~---------|*-----------------7-----------------7----*|
E |--------------|---------play-this-riff-4-times-----------|
Дата: Вчера, 18:22, Добавил: Aurondel, Раздел: Иностранные


Популярные песни
  • Титаник
  • Пираты карибского моря
  • Все бабы суки бабы бляди
  • Над старым аулом
  • Ламбада
  • Солдат (из к/ф Мы из будущего)
  • Мальчишка-наркоман
  • За Родину
  • Девочка не надо слезы лить напрасно
  • Орленок - Звезды


  • Облако тегов
    , 8 марта, Ария, Армия, би-2, блядь, Война, гитарное, Гражданская оборона, Грусть, Дворовые, ддт, Звери, Измена, Иностранные, интересное, Кино, КиШ, Красиво, Кузя, лагерное, лагерь, Лирика, Любовь, Любэ, ляпис, Многоточие, Наутилус Помпилиус, о жизни, песня, под гитару, Приколы, Разное, Расставание, Сектор газа, Слезы, Сплин, У костра, Чиж и Ко, Школа

    Показать все теги