Войти
Навигация

Наша группа

0-9  A-Z  А  Б  В  Г  Д  Е  Ж  З  И  К  Л  М  Н  О  П  Р  С  Т  У  Ф  Х  Ц  Ч  Ш  Щ  Ю  Я 

Просмотров: 589, Комментариев: 0
Verse 1:
Fm
I keep on dancin', Dancin'.
Fm
Nothing left to say, nothing left to do,
I find myself alone thinking just of you.
Дата: 17-12-2016, 11:33, Добавил: Aurondel, Раздел: Иностранные
Просмотров: 589, Комментариев: 0
Intro: Slow bass rumble, Em -Am

Verse 1:
Em
Over where the rainbow meets the darkened sky,
Am Em
I pretended there was hope for you and I.
G B
Now too late I guess the real world I find,
Дата: 17-12-2016, 11:21, Добавил: Aurondel, Раздел: Иностранные
Просмотров: 246, Комментариев: 0
Intro: Dbm - Abm - Dbm - Abm
E |----------------------------------------| А slightly modified
B |----------------------------------------| version of this gets
G |-1s15-15-15s13-13s15-15-15s20-18-15-13--| played under some of
D |----------------------------------------| the verses.
A |----------------------------------------|
E |----------------------------------------|
Дата: 16-12-2016, 23:55, Добавил: Aurondel, Раздел: Иностранные
Просмотров: 248, Комментариев: 0
Em A D

Em A
I saw a star above the clouds
D
It was the brightest one
A D
And I have just begun to understand you
Em A
You give me reason to believe
Дата: 16-12-2016, 23:34, Добавил: Aurondel, Раздел: Иностранные
Просмотров: 223, Комментариев: 0
E |-----------------------|---------------------------|
B |-----------------------|---------------------------|
G |-----------------------|---------------------------|
D |---------2h3-----------|----------2--0-------------|
A |2--3--5-------3--2-----|-2--3--5--------3--2--0----|
E |--------------------0--|-------------------------3-|
Дата: 16-12-2016, 23:20, Добавил: Aurondel, Раздел: Иностранные
Просмотров: 265, Комментариев: 0
Intro. Chords: C - Am - F - G - C - Am - F - G


Verse 1:
C Am F G C Am F G C Am F
Blue moon, you saw me standing alone, without a dream in my heart.
G C Am F G
Without a love of my own.
C Am F G C Am F G C Am F
Blue moon, you knew just what I was there for, you heard me saying a prayer for.
Дата: 15-12-2016, 13:51, Добавил: Aurondel, Раздел: Иностранные
Просмотров: 231, Комментариев: 0
Am Am D Dm
Blue Hotel, On a lonely highway
Am Am D Dm
Blue Hotel, Life don't work out my way

Intro:
E |---------0---|-0-|-X-|
B |-------1---1-|-1-|-X-|
G |-----2-------|-2-|-1-| Repeate This 3 Times
D |---2---------|-3-|-2-|
A |-0-----------|-3-|-2-|
E |-------------|-X-|-X-|
Дата: 15-12-2016, 13:40, Добавил: Aurondel, Раздел: Иностранные



Популярные песни
  • Титаник
  • Пираты карибского моря
  • Все бабы суки бабы бляди
  • Над старым аулом
  • Ламбада
  • Солдат (из к/ф Мы из будущего)
  • Мальчишка-наркоман
  • За Родину
  • Орленок - Звезды
  • Девочка не надо слезы лить напрасно


  • Облако тегов
    , 8 марта, Ария, Армия, би-2, блядь, Валерий Скутин, Война, Грусть, Дворовые, ддт, Звери, Измена, Иностранные, интересное, Кино, КиШ, Красиво, Кузя, лагерное, лагерь, Лирика, Любовь, Любэ, ляпис трубецкой, Многоточие, Наутилус Помпилиус, о жизни, песни, песня, под гитару, Приколы, Разное, Расставание, Сектор газа, Слезы, Сплин, У костра, Чиж и Ко, Школа

    Показать все теги