Войти
Навигация

Наша группа

0-9  A-Z  А  Б  В  Г  Д  Е  Ж  З  И  К  Л  М  Н  О  П  Р  С  Т  У  Ф  Х  Ц  Ч  Ш  Щ  Ю  Я 

Просмотров: 186, Комментариев: 0
intr. G C D G

G
TULANЕ AND JOHNNY OPENED AN NOVELTY SHOP
BACK UNDER THЕ CORNER IT WAS А CREAM OF THЕ CROP
C
EVERY THING WAS CLICKING AND THЕ BUSINESS WAS GOOD
G
?TIL ONЕ DAY LO BEHOLD AN OFFICER STOOD
Дата: 14-12-2016, 21:53, Добавил: Aurondel, Раздел: Иностранные
Просмотров: 183, Комментариев: 0
CHORUS 1:
G G7 C
They're really rockin' in Boston, Pittsburgh, PA
G G7 C
Deep in the heart of Texas and round the Frisco Bay
F C
All over St. Louis, way down in New Orleans
G G7 C
All the cats wanna dance with Sweet Little 16
Дата: 14-12-2016, 21:44, Добавил: Aurondel, Раздел: Иностранные
Просмотров: 170, Комментариев: 0
G
Up in the mornin' and off to school
The teacher is teachin' the golden rule
C
American hist'ry and practical math
G
You're studyin' hard, hopin' to pass
Дата: 14-12-2016, 21:31, Добавил: Aurondel, Раздел: Иностранные
Просмотров: 201, Комментариев: 0
INTRO:

E |-/8--8--8--8--8-----------|-8-----------8-----8---8---8--11b-|
B |-/8--8--8--8--8--10-------|-8--10-------8-----8---8---8--11b-|
G |---------------------8--9-|--------8h9-----9-----------------|
D |-----------------------10-|---------------10-----------------|
A |--------------------------|----------------------------------|
E |--------------------------|----------------------------------|
Дата: 14-12-2016, 21:23, Добавил: Aurondel, Раздел: Иностранные
Просмотров: 165, Комментариев: 0
G |------------------------------|------------------------------|
D |--------------------0---2---0-|---------------------0---2--0-|
A |-------------2----------------|-------------2----------------|
E |-3---3---3-------3------------|-3---3---3-------3------------|
Дата: 14-12-2016, 18:32, Добавил: Aurondel, Раздел: Иностранные
Просмотров: 155, Комментариев: 0
this is a long song so here we go
this is the intro

E |---------10-10-10-10-10-10-10-10--13p12-10----------|
B |---10-12-10-10-10-10-10-10-10-10-----------13p12-10-|
G |-11-------------------------------------------------|
D | ----------------------------------------------------|
A |----------------------------------------------------|
E |----------------------------------------------------|
Дата: 14-12-2016, 18:21, Добавил: Aurondel, Раздел: Иностранные
Просмотров: 221, Комментариев: 0
E
I'm gonna write a little letter,
E
Gonna mail it to my local DJ.
A
It's a rockin' rhythm record
E
I want my jockey to play.
Дата: 14-12-2016, 18:06, Добавил: Aurondel, Раздел: Иностранные



Популярные песни
  • Титаник
  • Пираты карибского моря
  • Все бабы суки бабы бляди
  • Над старым аулом
  • Ламбада
  • Солдат (из к/ф Мы из будущего)
  • Мальчишка-наркоман
  • За Родину
  • Орленок - Звезды
  • Девочка не надо слезы лить напрасно


  • Облако тегов
    , 8 марта, Ария, Армия, би-2, блядь, Валерий Скутин, Война, Грусть, Дворовые, ддт, Звери, Измена, Иностранные, интересное, Кино, КиШ, Красиво, Кузя, лагерное, лагерь, Лирика, Любовь, Любэ, ляпис трубецкой, Многоточие, Наутилус Помпилиус, о жизни, песни, песня, под гитару, Приколы, Разное, Расставание, Сектор газа, Слезы, Сплин, У костра, Чиж и Ко, Школа

    Показать все теги