Войти
Навигация

Наша группа

0-9  A-Z  А  Б  В  Г  Д  Е  Ж  З  И  К  Л  М  Н  О  П  Р  С  Т  У  Ф  Х  Ц  Ч  Ш  Щ  Ю  Я 

Просмотров: 231, Комментариев: 0
Am Am D Dm
Blue Hotel, On a lonely highway
Am Am D Dm
Blue Hotel, Life don't work out my way

Intro:
E |---------0---|-0-|-X-|
B |-------1---1-|-1-|-X-|
G |-----2-------|-2-|-1-| Repeate This 3 Times
D |---2---------|-3-|-2-|
A |-0-----------|-3-|-2-|
E |-------------|-X-|-X-|
Дата: 15-12-2016, 13:40, Добавил: Aurondel, Раздел: Иностранные
Просмотров: 149, Комментариев: 0
Intro: E chord

Verse 1:
E A
In beautiful houses, with beautiful gardens, and beautiful friends inside.
E A
And I stand all alone, the rain falling down, I stare at your window and I cry.
E A E
I love you so much, I love you too much, I love so much, so much,
A
Will you be mine?
Дата: 15-12-2016, 13:12, Добавил: Aurondel, Раздел: Иностранные
Просмотров: 188, Комментариев: 0
Intro Riff:
E |-----------------------------|
B |-----------------------------|
G |-----------------------------|
D |-----------------------------|
A |------------2----------------|
E |0--0--0--0-----0--3--5--3--0-|
*- This riff is played almost throughout the entire song!
Дата: 15-12-2016, 12:57, Добавил: Aurondel, Раздел: Иностранные
Просмотров: 169, Комментариев: 0
Intro: (Palm mute most of thge open E’s as close to the end of the strings as
possible with right hand)

E |----------------------|-------------------------|------------------------|
B |----------------------|-------------------------|------------------------|
G |----------------------|-------------------------|---2--2--2--2--2--------|
D |----------------------|-------------------------|---2--2--2--2--2--------|
A |----------------2-----|-------------------------|---0--0--0--0--0--------|
E |-0--0--0--0---0---3-5-|-0-0--0--0--0--0--0-3--5-|-0---------------0-3--5-|
Дата: 15-12-2016, 12:48, Добавил: Aurondel, Раздел: Иностранные
Просмотров: 217, Комментариев: 0
Intro.
Chords: Am - Em - Am - Em - Am - Em - Am - Em (Palm Mute) Am - Em - Am - Em

Verse 1:
Am Em Am Em
She never sleeps at night she's quiet but she dreams.
Am Em Am Em
Her mind is racing, she plans, she plots, she schemes.
Am Em Am Em
Another idea.
Дата: 15-12-2016, 11:22, Добавил: Aurondel, Раздел: Иностранные
Просмотров: 211, Комментариев: 0
Intro
e|-------------12--12--11--10--------8-8-|
B |-------------------------------3s5---5-|
G |---------9s12--12--11--10--------------|
D |---------------------------------------|
A |---------------------------------------|
E |---------------------------------------|
Дата: 14-12-2016, 22:48, Добавил: Aurondel, Раздел: Иностранные
Просмотров: 186, Комментариев: 0
intr. G C D G

G
TULANЕ AND JOHNNY OPENED AN NOVELTY SHOP
BACK UNDER THЕ CORNER IT WAS А CREAM OF THЕ CROP
C
EVERY THING WAS CLICKING AND THЕ BUSINESS WAS GOOD
G
?TIL ONЕ DAY LO BEHOLD AN OFFICER STOOD
Дата: 14-12-2016, 21:53, Добавил: Aurondel, Раздел: Иностранные



Популярные песни
  • Титаник
  • Пираты карибского моря
  • Все бабы суки бабы бляди
  • Над старым аулом
  • Ламбада
  • Солдат (из к/ф Мы из будущего)
  • Мальчишка-наркоман
  • За Родину
  • Орленок - Звезды
  • Девочка не надо слезы лить напрасно


  • Облако тегов
    , 8 марта, Ария, Армия, би-2, блядь, Война, гитарное, Грусть, Дворовые, ддт, Звери, Измена, Иностранные, интересное, Кино, КиШ, Красиво, Кузя, лагерное, лагерь, Лирика, Любовь, Любэ, ляпис, Многоточие, Наутилус Помпилиус, новости, о жизни, песня, под гитару, Приколы, Разное, Расставание, Сектор газа, Слезы, Сплин, У костра, Чиж и Ко, Школа

    Показать все теги