Войти
Навигация

Наша группа

0-9  A-Z  А  Б  В  Г  Д  Е  Ж  З  И  К  Л  М  Н  О  П  Р  С  Т  У  Ф  Х  Ц  Ч  Ш  Щ  Ю  Я 

Просмотров: 174, Комментариев: 0
Intro

Gtr I
E |--------|8-8-8-8-8--------|8-8-8-8-8--------|8-8-8-8-8-8-8-8|
B |----8-10|8-8-8-8-8----8-10|8-8-8-8-8----8-10|8-8-8-8-8-8-8-8|
G |-/9-----|9---------/9-----|8-8-8-8-8-/9-----|9--------------|
D |--------|-----------------|-----------------|---------------|
A |--------|-----------------|-----------------|---------------|
E |--------|-----------------|-----------------|---------------|
Дата: 12-12-2016, 16:52, Добавил: Aurondel, Раздел: Иностранные
Просмотров: 151, Комментариев: 0
INTRO:
------

E |------12---12----11---10--8-8--|--------------|
B |--5/8----8-----7----6-----5-5--| / = slide up-|
G |-------------------------------|--------------|
D |-------------------------------|--------------|
A |-------------------------------|--------------|
E |-------------------------------|--------------|
Дата: 12-12-2016, 16:06, Добавил: Aurondel, Раздел: Иностранные
Просмотров: 175, Комментариев: 0
Intro:

E |---------14--13-------------12--10------12--12--12-|
B |----------------------------------------14--14--14-|
G |-13--14----------13--12-----------------14--14--14-|
D |----------------------------------------14--14--14-|
A |----------------------------------------12--12--12-|
E |---------------------------------------------------|
Дата: 11-12-2016, 14:24, Добавил: Aurondel, Раздел: Иностранные
Просмотров: 172, Комментариев: 0
C
She drew out all her money at the Southern Trust

And put her little boy upon a Greyhound bus
F
Leaving Louisiana for the golden west
C
Down came the tears from her happiness
Дата: 11-12-2016, 14:18, Добавил: Aurondel, Раздел: Иностранные
Просмотров: 143, Комментариев: 0
E
Arrested on charges of unemployment,
E
he was sitting in the witness stand
A
The judge's wife called up the district attorney
B E
Said you free that brown eyed man
Дата: 11-12-2016, 14:12, Добавил: Aurondel, Раздел: Иностранные
Просмотров: 144, Комментариев: 0
D
e|---------|-10-10-10-10-10-10-10-10-|-10---------------------|
B |---10-12-|-10-10-10-10-10-10-10-10-|-10-13-12-10-10---------|
G |11-------|-------------------------|----13-12-10-11---------|
D |---------|-------------------------|----------------12-10---|
A |---------|-------------------------|----------------------12|
E |---------|-------------------------|------------------------|
Дата: 11-12-2016, 13:54, Добавил: Aurondel, Раздел: Иностранные
Просмотров: 146, Комментариев: 0
Verse 1 (Breaks 1st & 2nd Verse)
B
They say the joint was rockin'

a goin' 'round and round
E B
Yeah reelin' and a rockin' what a crazy sound
Дата: 11-12-2016, 12:44, Добавил: Aurondel, Раздел: Иностранные



Популярные песни
  • Титаник
  • Пираты карибского моря
  • Все бабы суки бабы бляди
  • Над старым аулом
  • Ламбада
  • Солдат (из к/ф Мы из будущего)
  • Мальчишка-наркоман
  • За Родину
  • Орленок - Звезды
  • Девочка не надо слезы лить напрасно


  • Облако тегов
    , 8 марта, Ария, Армия, би-2, блядь, Валерий Скутин, Война, Грусть, Дворовые, ддт, Звери, Измена, Иностранные, интересное, Кино, КиШ, Красиво, Кузя, лагерное, лагерь, Лирика, Любовь, Любэ, ляпис трубецкой, Многоточие, Наутилус Помпилиус, о жизни, песни, песня, под гитару, Приколы, Разное, Расставание, Сектор газа, Слезы, Сплин, У костра, Чиж и Ко, Школа

    Показать все теги