Войти
Навигация

Наша группа

0-9  A-Z  А  Б  В  Г  Д  Е  Ж  З  И  К  Л  М  Н  О  П  Р  С  Т  У  Ф  Х  Ц  Ч  Ш  Щ  Ю  Я 

Просмотров: 175, Комментариев: 0
INTRO:
e|------------|6--6--6--6--6--6--6--6-|-6----------------------|
b|-------6--8-|6--6--6--6--6--6--6--6-|-6--9--8--6-------------|
g|-6--7-------|-----------------------|-------------6--7-------|
d|------------|-----------------------|-------------------8--8-|
a|------------|-----------------------|------------------------|
e|------------|-----------------------|------------------------|
Дата: 12-12-2016, 17:18, Добавил: Aurondel, Раздел: Иностранные
Просмотров: 320, Комментариев: 0
A
Deep down in Louisiana, close to New Orleans,
A
Way back up in the woods among the evergreens,
D
There stood a log cabin made of earth and wood
A
Where lived a country boy named Johnny B. Goode
Дата: 12-12-2016, 17:13, Добавил: Aurondel, Раздел: Иностранные
Просмотров: 135, Комментариев: 0
E |-------8-8-8-8-8-------------------|
B |-5s8s7-8-8-8-8-8--5s8s7--8-8-8-8-8-|
G |-------------------------9-9-9-9-9-|
D |-----------------------------------|
A |-----------------------------------|
E |-----------------------------------|
Дата: 12-12-2016, 17:08, Добавил: Aurondel, Раздел: Иностранные
Просмотров: 166, Комментариев: 0
INTRO:

E |-14-14-14-14--14-^17-16-14-| Repeat once
G |---------------------------|
B |---------------------------|
D |---------------------------|
A |---------------------------|
E |---------------------------|
Дата: 12-12-2016, 17:05, Добавил: Aurondel, Раздел: Иностранные
Просмотров: 159, Комментариев: 0
Intro:

E -----------14--13-------------12--10------12--12--12-------
B ------------------------------------------14--14--14-------
G ---13--14----------13--12-----------------14--14--14-------
D ------------------------------------------14--14--14-------
A ------------------------------------------12--12--12-------
E -----------------------------------------------------------
Дата: 12-12-2016, 16:59, Добавил: Aurondel, Раздел: Иностранные
Просмотров: 174, Комментариев: 0
Intro

Gtr I
E |--------|8-8-8-8-8--------|8-8-8-8-8--------|8-8-8-8-8-8-8-8|
B |----8-10|8-8-8-8-8----8-10|8-8-8-8-8----8-10|8-8-8-8-8-8-8-8|
G |-/9-----|9---------/9-----|8-8-8-8-8-/9-----|9--------------|
D |--------|-----------------|-----------------|---------------|
A |--------|-----------------|-----------------|---------------|
E |--------|-----------------|-----------------|---------------|
Дата: 12-12-2016, 16:52, Добавил: Aurondel, Раздел: Иностранные
Просмотров: 151, Комментариев: 0
INTRO:
------

E |------12---12----11---10--8-8--|--------------|
B |--5/8----8-----7----6-----5-5--| / = slide up-|
G |-------------------------------|--------------|
D |-------------------------------|--------------|
A |-------------------------------|--------------|
E |-------------------------------|--------------|
Дата: 12-12-2016, 16:06, Добавил: Aurondel, Раздел: Иностранные



Популярные песни
  • Титаник
  • Пираты карибского моря
  • Все бабы суки бабы бляди
  • Над старым аулом
  • Ламбада
  • Солдат (из к/ф Мы из будущего)
  • Мальчишка-наркоман
  • За Родину
  • Орленок - Звезды
  • Девочка не надо слезы лить напрасно


  • Облако тегов
    , 8 марта, Ария, Армия, би-2, блядь, Валерий Скутин, Война, Грусть, Дворовые, ддт, Звери, Измена, Иностранные, интересное, Кино, КиШ, Красиво, Кузя, лагерное, лагерь, Лирика, Любовь, Любэ, ляпис трубецкой, Многоточие, Наутилус Помпилиус, о жизни, песни, песня, под гитару, Приколы, Разное, Расставание, Сектор газа, Слезы, Сплин, У костра, Чиж и Ко, Школа

    Показать все теги