Войти
Навигация

Наша группа

0-9  A-Z  А  Б  В  Г  Д  Е  Ж  З  И  К  Л  М  Н  О  П  Р  С  Т  У  Ф  Х  Ц  Ч  Ш  Щ  Ю  Я 

Просмотров: 138, Комментариев: 0
INTRO: (play Lick #1)


Em - C - D (x4) (then play Lick #2)


Em C D Em C D
How can I explain it, this feeling it’s true
Em C D Em C D (play Lick #3)
Honey I can’t hardly stand it, I wanna make love to you
Дата: 10-12-2016, 16:08, Добавил: Aurondel, Раздел: Иностранные
Просмотров: 172, Комментариев: 0
INTRO: C Bb F


VERSE 1:

C Bb F
You leave a trail of tears wherever you go
C Bb F
One of us will hold you, the other one won’t
C Bb F
But I could never share your love or leave it behind
Dm F G C
Break his heart, not mine
Дата: 10-12-2016, 15:57, Добавил: Aurondel, Раздел: Иностранные
Просмотров: 157, Комментариев: 0
G
Well I don't know who I am
D
driving in a Pontiac just about the rules my mind

I was going nowhere zone

maybe only California
Дата: 9-12-2016, 13:39, Добавил: Aurondel, Раздел: Иностранные
Просмотров: 148, Комментариев: 0
INTRO: A G#m F#m B
A G#m F#m E


VERSЕ 1:

A G#m F#m E
Feels like someone’s put the hurt on me
A G#m F#m B
And it’s making me feel sad
Дата: 9-12-2016, 13:10, Добавил: Aurondel, Раздел: Иностранные
Просмотров: 148, Комментариев: 0
Emaj7 F#m/E
There's a thorn tree in the garden, if you know just what I mean
Emaj7 F#m/E
And I hate to hurt your feelings but its not the way it seems
Emaj7 F#m/E Emaj7 F#m/E
'Cause I miss her
Дата: 9-12-2016, 13:02, Добавил: Aurondel, Раздел: Иностранные
Просмотров: 134, Комментариев: 0
-------------------0--------------------------------------------------------
-------------------2--------------------------------------------------------
-------------------0------------------------------------------0---------0---
-------------------2------------------------------------------2------0--2---
-------------------0------------------------------------------2---2--0--2---
--------------------------------------------------------------0---------0---
The Sky is Crying, look at the tears rolling down the streets.
Дата: 9-12-2016, 12:47, Добавил: Aurondel, Раздел: Иностранные
Просмотров: 140, Комментариев: 0
Main riff:
E A E A
------------------------------------------
------------------------------------------
-------------1-2--------------------------
-0h2---2-2---2-2--0h2--2-2--------------0--
-----------------------------5p4p0--0h2----
-----0-----0---------0-----0---------------
Дата: 9-12-2016, 12:25, Добавил: Aurondel, Раздел: Иностранные



Популярные песни
  • Титаник
  • Пираты карибского моря
  • Все бабы суки бабы бляди
  • Над старым аулом
  • Ламбада
  • Солдат (из к/ф Мы из будущего)
  • Мальчишка-наркоман
  • За Родину
  • Орленок - Звезды
  • Девочка не надо слезы лить напрасно


  • Облако тегов
    , 8 марта, Ария, Армия, би-2, блядь, Валерий Скутин, Война, Грусть, Дворовые, ддт, Звери, Измена, Иностранные, интересное, Кино, КиШ, Красиво, Кузя, лагерное, лагерные песни, лагерь, Лирика, Любовь, Любэ, ляпис трубецкой, Многоточие, Наутилус Помпилиус, о жизни, песня, под гитару, Приколы, Разное, Расставание, Сектор газа, Слезы, Сплин, У костра, Чиж и Ко, Школа

    Показать все теги