Войти
Навигация

Наша группа

0-9  A-Z  А  Б  В  Г  Д  Е  Ж  З  И  К  Л  М  Н  О  П  Р  С  Т  У  Ф  Х  Ц  Ч  Ш  Щ  Ю  Я 

Аккорды к песне Chuck Berry - No Particular Place To Go (2 вариант)

Просмотров: 146, Комментариев: 0
 (голосов: 0)




Транспонировать:
Intro
Gtr I
E |-10-10-10-10-10-10-10-10-10-10-10-10-|-10-|
B |-11-11-11-11-11-11-11-11-11-11-11-11-|-11-|
G |-11-11-11-11-11-11-11-11-11-11-11-11-|-11-|
D |-12-12-12-12-12-12-12-12-12-12-12-12-|-12-|
A |-------------------------------------|----|
E |-------------------------------------|----|

Verse
G
Gtr II
E ||-----------------------------|---------------|
B ||o----------------------------|-------------o-|
G ||-----------------------------|---------------|
D ||-----------------------------|---------------|
A ||o-5-5--7---7---5---5---7-7---|-5-----------o-|
E ||--3-3--3---3---3---3---3-3---|-3-------------|

Gtr I
E ||-----------------------------|---------------|
B ||o-----/6-6---6-6-6---6-5---3-|-------------o-|
G ||------/7-7---7-7-7---7-5---4-|---------------|
D ||-----------------------------|-5-------------|
A ||o----------------------------|-------------o-|
E ||-----------------------------|---------------|

C
E |----------------------|-----------|----------------------|---|
B |----------------------|-----------|----------------------|---|
G |----------------------|-----------|----------------------|---|
D |-5-5--7-7--5-5--7-7---|-5---------|----------------------|---|
A |-3-3--3-3--3-3--3-3---|-3---------|-5-5--7-7--5-5--7-7---|-5-|
E |----------------------|-----------|-3-3--3-3--3-3--3-3---|-3-|

E |-----/3---/3----------|-----------|-----/3---/3----------|---|
B |-----/3---/3---⁄5---3-|-----------|-----/3---/3---⁄5---3-|---|
G |---------------⁄5---3-|-----------|---------------⁄5---3-|---|
D |----------------------|-5---------|----------------------|-5-|
A |----------------------|-----------|----------------------|---|
E |----------------------|-----------|----------------------|---|

D
E |----------------------------|---|
B |----------------------------|---|
G |----------------------------|---|
D |-7-7--9---9---7---7---9-9---|-7-|
A |-5-5--5---5---5---5---5-5---|-5-|
E |----------------------------|---|

E |----------------------------|---|
B |-----/6-6---6-6-6---6-5---3-|---|
G |-----/7-7---7-7-7---7-5---4-|---|
D |----------------------------|-5-|
A |----------------------------|---|
E |----------------------------|---|

E |----------------------------|---|
B |----------------------------|---|
G |----------------------------|---|
D |----------------------------|---|
A |-5-5--7---7---5---5---7-7---|-5-|
E |-3-3--3---3---3---3---3-3---|-3-|

E |----------------------------|---|
B |-----/6-6---6-6-6---6-5---3-|---|
G |-----/7-7---7-7-7---7-5---4-|---|
D |----------------------------|-5-|
A |----------------------------|---|
E |----------------------------|---|

Verse
E ||-----------------------|---------------|
B ||o----------------------|-------------o-|
G ||-----------------------|---------------|
D ||-----------------------|---------------|
A ||o-5-5--7-7--5-5--7-7---|-5-----------o-|
E ||--3-3--3-3--3-3--3-3---|-3-------------|

E ||------/3---/3----------|---------------|
B ||o-----/3---/3---⁄5---3-|-------------o-|
G ||----------------⁄5---3-|---------------|
D ||-----------------------|-5-------------|
A ||o----------------------|-------------o-|
E ||-----------------------|---------------|

E |----------------------------|---|
B |----------------------------|---|
G |----------------------------|---|
D |-5-5--7---7---5---5---7-7---|-5-|
A |-3-3--3---3---3---3---3-3---|-3-|
E |----------------------------|---|

E |----------------------------|---|
B |-----/6-6---6-6-6---6-5---3-|---|
G |-----/7-7---7-7-7---7-5---4-|---|
D |----------------------------|-5-|
A |----------------------------|---|
E |----------------------------|---|

E |----------------------------|---|
B |----------------------------|---|
G |----------------------------|---|
D |----------------------------|---|
A |-5-5--7---7---5---5---7-7---|-5-|
E |-3-3--3---3---3---3---3-3---|-3-|

E |----------------------------|---|
B |-----/6-6---6-6-6---6-5---3-|---|
G |-----/7-7---7-7-7---7-5---4-|---|
D |----------------------------|-5-|
A |----------------------------|---|
E |----------------------------|---|

To Coda
E |----------------------|-------------|--------------------|
B |----------------------|-------------|--------------------|
G |----------------------|-------------|--------------------|
D |-7-7--9-9--7-7--9-9---|-7-----------|--------------------|
A |-5-5--5-5--5-5--5-5---|-5-----------|-5-5--7-7--5-5--7-7-|
E |----------------------|-------------|-3-3--3-3--3-3--3-3-|

E |-----/3---/3----------|-------------|-----/3---/3----------|
B |-----/3---/3---⁄5---3-|-------------|-----/3---/3---⁄5---3-|
G |---------------⁄5---3-|-------------|---------------⁄5---3-|
D |----------------------|-5-----------|----------------------|
A |----------------------|-------------|----------------------|
E |----------------------|-------------|----------------------|

E |-------------|
B |-------------|
G |-------------|
D |-------------|
A |-----------5-|
E |-----------3-|

E |----------10---10----10-10-10-10------10--10-10-10-10-10--|
B |-11pb12==(11)-(11)---11-11-11-11b12==(11)-11-11-11-11-11r-|
G |-11pb12==(11)-(11)------------11b12==(11)-11-11-11-11-11r-|
D |----------------------------------------------------------|
A |----------------------------------------------------------|
E |----------------------------------------------------------|

Guitar Solo
Gtr II-
G (pattern as verse)

E |-10------10--10---10-10-10---10--10------10--10---10-10-10---10--|
B |-11b12==(11)-11---11-11-11---11r-11b12==(11)-11---11-11-11---11r-|
G |-11b12==(11)-11---11-11-11---11r-11b12==(11)-11---11-11-11---11r-|
D |-----------------------------------------------------------------|
A |-----------------------------------------------------------------|
E |-----------------------------------------------------------------|

G
E |-10------10--10---10--10------10--10-|
B |-11b12==(11)-11---11r-11b12==(11)-11-|
G |-11b12==(11)-11---11r-11b12==(11)-11-|
D |-------------------------------------|
A |-------------------------------------|
E |-------------------------------------|

E |-10--10------10--10---10--10------10--10---10--|
B |-11r-11b12==(11)-11---11r-11b12==(11)-11---11r-|
G |-11r-11b12==(11)-11---11r-11b12==(11)----------|
D |-----------------------------------------------|
A |-----------------------------------------------|
E |-----------------------------------------------|

G
E |-----------------------10------10--10---10-10-10---10--|
B |--------------------12-11b12==(11)-11---11-11-11---11r-|
G |-12-12---12-12-12---12-11b12==(11)-11---11-11-11---11r-|
D |-12-12---12-12-12---12---------------------------------|
A |-------------------------------------------------------|
E |-------------------------------------------------------|

G
E |-10------10--10---10-10-10---10--10------10--10---10-10-10---10--|
B |-11b12==(11)-11---11-11-11---11r-11b12==(11)-11---11-11-11---11r-|
G |-11b12==(11)-11---11-11-11---11r-11b12==(11)-11---11-11-11---11--|
D |-----------------------------------------------------------------|
A |-----------------------------------------------------------------|
E |-----------------------------------------------------------------|

C C
E |-----------------------------------|----------------------------------|
B |-/8-8---8-8-8---8-/8-8---8-8-8---8-|-/8-8---8-8-8---8-7-7---7-5-5---5-|
G |-/9-9---9-9-9---9-/9-9---9-9-9---9-|-/9-9---9-9-9---9-7-7---7-5-5---5-|
D |-----------------------------------|----------------------------------|
A |-----------------------------------|----------------------------------|
E |-----------------------------------|----------------------------------|

G G
E |----------------------------------|--------------------------3-----3-|
B |-/3-3---3-3-3---3-3-3---3-3-3---3-|-/6-6---6-6-6---6-5-3---8-3-----3-|
G |-/4-4---4-4-4---4-4-4---4-4-4---4-|-/7-7---7-7-7---7-5-3h4-9---4-----|
D |----------------------------------|----------------------------------|
A |----------------------------------|----------------------------------|
E |----------------------------------|----------------------------------|

D C
E |----------------------------------|------------------------------------|
B |-/6-6---6-6-6---6-5-3---8-3-3---3-|-/6-6---6-6-6---6-/6-6---6⁄-5-3-----|
G |-/7-7---7-7-7---7-5-3h4-9-4-4---4-|-/7-7---7-7-7---7-/7-7---7⁄-5-3---4-|
D |----------------------------------|----------------------------------5-|
A |----------------------------------|------------------------------------|
E |----------------------------------|------------------------------------|

D.S. al Coda
E |-------------------------------------|---|
B |-------------------------------------|---|
G |-------------------------------------|---|
D |---------------------5---5---7---7---|---|
A |-5-5-------7-------7-3---3---3---3---|-5-|
E |-3-3-------3-------3-----------------|-3-|

E |-----6b6.5---6b6.5---3-5---3---------|---|
B |-3---5b5.5---5b5.5---3-5---3-6s5---x-|-3-|
G |-4---------------------------6s5-----|-4-|
D |-------------------------------------|-5-|
A |-------------------------------------|---|
E |-------------------------------------|---|

Guitar Solo
E |-----|
B |-----|
G |-----|
D |-----|
A |---5-|
E |---3-|

E |-----------------------------------------|
B |-----15---15-15-15-15-----15-15-15-15-15-|
G |-/16-16---16-16-16-16-/16-16-16-16-16-16-|
D |-/17-17---17-17-17-17-/17-17-17-17-17-17-|
A |-----------------------------------------|
E |-----------------------------------------|

G
E |-----------------------------------------------|
B |-----15---15-15-15---15-----15---15-15-15---15-|
G |-/16-16---16-16-16---16-/16-16---16-16-16---16-|
D |-/17-17---17-17-17---17-/17-17---17-17-17---17-|
A |-----------------------------------------------|
E |-----------------------------------------------|

G
E |-----------------------------------------------|
B |-----15---15-15-15---15-----15---15-15-15---15-|
G |-/16-16---16-16-16---16-/16-16---16-16-16---16-|
D |-/17-17---17-17-17---17-/17-17---17-17-17---17-|
A |-----------------------------------------------|
E |-----------------------------------------------|

G
E |-5-6b6.5-3-3-3---3-5-6b6.5-3-3-3---3-|
B |-5-6b6.5-3-3-3---3-5-6b6.5-3-3-3---3-|
G |-------------------------------------|
D |-------------------------------------|
A |-------------------------------------|
E |-------------------------------------|

G C
E |-6b6.5-3-----------5---3-----------------|----3---3-3-3---3----3---3-3-3---3-|
B |-6b6.5-3---5b5.5-3-5---3-6-5---3---3---5-|-/6-3---3-3-3---3----3---3-3-3---3-|
G |-----------5b5.5-3-------6-5---3-4-3---5-|-/6---------------/6---------------|
D |---------------------------------5-------|-----------------------------------|
A |-----------------------------------------|-----------------------------------|
E |-----------------------------------------|-----------------------------------|

C G
E |----3---3----3---3----3---3----3---3-|----3---3----3---3----3---3----3---3-|
B |-/6-3---3-/6-3---3-/6-3---3-/6-3---3-|-/6-3---3-/6-3---3-/6-3---3-/6-3---3-|
G |-/6-------/6-------/6-------/6-------|-/6-------/6-------/6-------/6-------|
D |-------------------------------------|-------------------------------------|
A |-------------------------------------|-------------------------------------|
E |-------------------------------------|-------------------------------------|

G
E |----3---3----3---3----3---3----3---3-|
B |-/6-3---3-/6-3---3-/6-3---3-/6-3---3-|
G |-/6-------/6-------/6-------/6-------|
D |-------------------------------------|
A |-------------------------------------|
E |-------------------------------------|

D
E |-6-6---6-6b6.5-6b6.5---6b6.5-6b6.5-6b6.5---6b6.5-6-6---6-|
B |-6-6---6-6b6.5-6b6.5---6b6.5-6b6.5-6b6.5---6b6.5-6-6---6-|
G |---------------------------------------------------------|
D |---------------------------------------------------------|
A |---------------------------------------------------------|
E |---------------------------------------------------------|

C
E |-6b6.5-6b6.5---6b6.5-6b6.5-6b6.5---6b6.5-6b6.5-6b6.5---6b6.5-6-6---6-|
B |-6b6.5-6b6.5---6b6.5-6b6.5-6b6.5---6b6.5-6b6.5-6b6.5---6b6.5-6-6---6-|
G |---------------------------------------------------------------------|
D |---------------------------------------------------------------------|
A |---------------------------------------------------------------------|
E |---------------------------------------------------------------------|

G
E |-3-3---------------------|
B |-3-3-6-5---3-----3-5---5-|
G |-----6-5---3-4-4-3-5---5-|
D |-------------5-5---------|
A |-------------------------|
E |-------------------------|

E |-----------------------------|-------------------|
B |-----------------------------|-------------------|
G |-----------------------------|-------------------|
D |-----------------------------|-------------------|
A |-5---------------------------|-5-5-7-7---5-5-7-7-|
E |-3---------------------------|-3-3-3-3---3-3-3-3-|

E |---------3---3---3---3-------|---3---------3-------|
B |-5b6-----3---3---3---3---5-3-|---3---5-3---3---5-3-|
G |-5b6---------------------5-3-|-4-----5-3-4-----5-3-|
D |-----------------------------|-5---------5---------|
A |-----------------------------|---------------------|
E |-----------------------------|---------------------|

G G
E |---3---------3-------|---3-----3-----3---3-----3-----3-|
B |---3---5-3---3---5-3-|---3-----3-----3---3-----3-----3-|
G |-4-----5-3-4-----5-3-|-4-------------------------------|
D |-5---------5---------|-5-------------------------------|
A |---------------------|---------------------------------|
E |---------------------|---------------------------------|

G C
E |---3-3-3-5b5.5---(5)-5-3-------------|-----------------------------|
B |---3-3-3-5b5.5---(5)-5-3---5-3-----3-|-5b6r5-3-------5-5-3-------5-|
G |---------------------------5-3-----3-|-5b6r5-3---3---5-5-3---3---5-|
D |-------------------------------5-----|---------5-----------5-------|
A |-------------------------------------|-----------------------------|
E |-------------------------------------|-----------------------------|

C G
E |-----------------------------|----3---3----3---3----3---3----3---3-|
B |-5b6r5-3-------5-5-3-------5-|-/6-3---3-/6-3---3-/6-3---3-/6-3---3-|
G |-5b6r5-3---3---5-5-3---3---5-|-/6-------/6-------/6-------/6-------|
D |---------5-----------5-------|-------------------------------------|
A |-----------------------------|-------------------------------------|
E |-----------------------------|-------------------------------------|

G
E |----3---3----3---3----3---3----3---3-|
B |-/6-3---3-/6-3---3-/6-3---3-/6-3---3-|
G |-/6-------/6-------/6-------/6-------|
D |-------------------------------------|
A |-------------------------------------|
E |-------------------------------------|

D
E |----3---3-3-3---3-6b6.5---6b6.5---6b6.5-|
B |-/6-3---3-3-3---3-5b5.5---5b5.5---5b5.5-|
G |-/6-------------------------------------|
D |----------------------------------------|
A |----------------------------------------|
E |----------------------------------------|

C
E |-6b6.5---6b6.5---6b6.5---6b6.5---6b6.5---6b6.5-|
B |-5b5.5---5b5.5---5b5.5---5b5.5---5b5.5---5b5.5-|
G |-----------------------------------------------|
D |-----------------------------------------------|
A |-----------------------------------------------|
E |-----------------------------------------------|

E |-----------------|---------------*-|
B |-----------------|---------------*-|
G |-----------------|----5-4-(4)----*-|
D |-----------------|----4-3-(3)----*-|
A |-5-5-7-7-5-5-7-7-|-5--6-5-(5)----*-|
E |-3-3-3-3-3-3-3-3-|-3--4-3-(3)----*-|

E |-3---------------|---------------*-|
B |-3---------------|---------------*-|
G |-------------0-0-|-0--5-4-(4)----*-|
D |-----3-3-2-2-1-1-|-0--4-3-(3)----*-|
A |-----------------|----6-5-(5)----*-|
E |-----------------|----4-3-(3)----*-|

Verse 1

Riding along in my automobile
My baby beside me at the wheel
I stole a kiss at the turn of a mile
my curiosity running wild
crusin' and playin' the radio
with no particular place to go

Verse 2

Riding along in my automobile
I's anxious to tell her the way I feel
So I told her softly and sincere
and she leaned and whispered in my ear
cuddlin' more and drivin' slow
with no particular place to go

Verse 3
No particular place to go
So we parked way out on ko-ko-mo
The night was young and the moon was gold
So we both decided to take a stroll
Can you image the way I felt
I couldn't unfasten her safety belt

Verse 4

Riding along in my calaboose
Still trying to get her belt a-loose
all the way home I held a grudge
for the safety belt that wouldn't budge
Crusin' and playing the radio
with no particular place to go
Добавить новый гитарный бой
Дата: 14-12-2016, 17:06, Добавил: Aurondel, Раздел: Иностранные
Информация
Посетители, находящиеся в группе Гости, не могут оставлять комментарии к данной публикации.



Популярные песни
  • Титаник
  • Пираты карибского моря
  • Все бабы суки бабы бляди
  • Над старым аулом
  • Ламбада
  • Солдат (из к/ф Мы из будущего)
  • Мальчишка-наркоман
  • За Родину
  • Орленок - Звезды
  • Девочка не надо слезы лить напрасно


  • Облако тегов
    , 8 марта, Ария, Армия, би-2, блядь, Валерий Скутин, Война, Грусть, Дворовые, ддт, Звери, Измена, Иностранные, интересное, Кино, КиШ, Красиво, Кузя, лагерное, лагерь, Лирика, Любовь, Любэ, ляпис трубецкой, Многоточие, Наутилус Помпилиус, о жизни, песни, песня, под гитару, Приколы, Разное, Расставание, Сектор газа, Слезы, Сплин, У костра, Чиж и Ко, Школа

    Показать все теги