Войти
Навигация

Мини-чат
Написалzhelinscky
23 октября 2016
привет всем заходите на портал гитаристов akkordmovi.com
Написалzhelinscky
23 октября 2016
всем привет заходите на новый портал гитаристов [leech=http://akkordmovi.com]akko
rdmovi.com[/leech]
НаписалВексель
7 августа 2016
Всем привет
НаписалAragorn
4 апреля 2016
привет
НаписалVurf
1 марта 2016
шалом, бездельники!)
НаписалHohner
8 февраля 2016
https://www.youtube.com/watch?v=9
wG5oHsYkvA
НаписалHohner
8 февраля 2016
smile-03
Написалslaveckii77
24 января 2016
slaveckii77, Я тут))))
Написалslaveckii77
24 января 2016
Где все ??? ЭЭЭ народ?
Написалslaveckii77
24 января 2016
Где все ??? ЭЭЭ народ?

Только зарегистрированные пользователи могут отправлять сообщения.

Наша группа

0-9  A-Z  А  Б  В  Г  Д  Е  Ж  З  И  К  Л  М  Н  О  П  Р  С  Т  У  Ф  Х  Ц  Ч  Ш  Щ  Ю  Я 

Аккорды к песне Bryan Adams - Please Forgive Me (2 вариант)

Просмотров: 911, Комментариев: 0
 (голосов: 0)




Транспонировать:
intro:
|(guitar 1 )|(keyboard) |(guitar 2...intro solo)
|------------|-5-4-5-0-----|--7s9---9p7--7---7-9-7-5-----------7s9-7-5-7s9-|
|----0-----0-|-------------|-----------10-----------7---7p5-7p5------------|
|---2----2---|-------------|-----------------------------------------------|
|-2----0-----|-------------|-----------------------------------------------|
|------------|-------------|-----------------------------------------------|
|------------|-------------|-----------------------------------------------|

(verse 1)
A
It still feels like our first night together
E F#m
Feels like the first kiss, and it⁄'s getting better, baby
E
No one can better this
A E
You⁄'re still holding on, you⁄'re still the one
(guitar 2)
E |-----------------------5s7-9-|
B |-----------------------------|

A E
First time our eyes met
(guitar 2) )⁄
E |--------------------------7/--⁄-|
B |--------------------------------|

C#7
Same feeling I get
(guitar 2)
E |---------------------9p7-5|
B |--------------------------|

F#m E
Only feels much stronger
C#7 ( B9 )
I wanna love you longer
A E
You still turn the fire on?


A F#m A D
So if you're feeling lonely, don't
(keyboard)
E |-------------------------------------5-4-5-0--5-4-5--|
B |---------------------------------------------------3-|

A E
You're the only one I'll ever want
F#m A D
I only want to make it good
(keyboard)
E |-------------------------------------5-4-5-0--5-4-5--|
B |---------------------------------------------------3-|

E F#m A D
So if I love you little more than I should ...

A E/A A
Please forgive me, I know not what I do

F#m E/F# F#m
Please forgive me, I can't stop loving you

D E/D D
Don't deny me, this pain I'm going through

A E/A A
Please forgive me, if I need you like I do

E D/E E
Please believe me , every word I say is true

D A E
Please forgive me, I can't stop loving you


|(guitar 2)
|--7s9---9p7--7---7-9-7-5-----------7s9---------|
|----------10------------7---7p5-7p5------------|
|-----------------------------------------------|
|-----------------------------------------------|
|-----------------------------------------------|
|-----------------------------------------------|

(verse 2 ..use the same chords and guitar lines in verse 1)

Still feels like our best times are together
Feels like the first touch
Still getting closer baby
Can't get closer enough
Still holding on
You're still number one
I remember the smell of your skin
I remember everything
I remember all the moves
I remember you yeah
I remember the nights, you know I still do

So if you're feeling lonely, don't
You're the only one I'll ever want
I only want to make it go
So if I love you a little more than I should ...

Please forgive me, I know not what I do
Please forgive me, I can't stop loving you
Don't deny me, this pain I'm going through
Please forgive me, if I need you like I do
Please believe me (Oh believe it), every word I say is true
Please forgive me, I can't stop loving you

Guitar solo(guitar 2) )⁄ )⁄ )⁄ )⁄
E |-----9-7---------7--7-5-7-7s9-7-|
B |--------10-9-10-----------------|
G |---------------7----------------|

E |-12/ ⁄9-7---------5-7-9/ ⁄-12/ ⁄-14/ ⁄-14-12---------------|
B |----------10-9-10-------------------------------15141514-12|
G |-----------------7-----------------------------------------|

E
The one thing I'm sure of
A
Is the way we make love
(guitar 2) )⁄
E |--------------------------------14/ ⁄-------|
B |--------------------------------------141214-|

E
The one thing I depend on
A
Is for us to stay strong

(guitar 2) )⁄
E |--------------------------------------------14/ ⁄----|
B |---------------------------------------------------15-|
With every word and every breath I'm pray - ing
(guitar 2)
E |--------------------------------------------------------7h9-5---|
B |----------------------------------------------------------------|

E
That's why I'm saying

B F#/B B
Please forgive me, I know not what I do
G#m F#/G# G#m
Please forgive me, I can't stop loving you
E F#/E E
Don't deny me, this pain I'm going through
B F#/B B
Please forgive me, if I need you like I do
F# E/F# F#
Babe believe me, every word I say is true
E B F#/B
Please forgive me, if I can't stop loving you
B F# E/F# F#
Never leave me, I don't know what I'd do
E B F# E
Please forgive me, I can't stop loving you
B
I can't stop ... loving you ...
Добавить новый гитарный бой
Дата: 12-02-2014, 12:02, Добавил: Aurondel, Раздел: Иностранные
Информация
Посетители, находящиеся в группе Гости, не могут оставлять комментарии к данной публикации.



Популярные песни
  • Титаник
  • Пираты карибского моря
  • Все бабы суки бабы бляди
  • Над старым аулом
  • Ламбада
  • Солдат (из к/ф Мы из будущего)
  • Мальчишка-наркоман
  • За Родину
  • Девочка не надо слезы лить напрасно
  • Орленок - Звезды


  • Облако тегов
    , 8 марта, Ария, Армия, би-2, блядь, Валерий Скутин, Война, Грусть, Дворовые, ддт, Звери, Измена, Иностранные, интересное, Кино, КиШ, Красиво, Кузя, лагерное, лагерь, Лирика, Любовь, Любэ, ляпис трубецкой, Многоточие, Наутилус Помпилиус, о жизни, песни, песня, под гитару, Приколы, Разное, Расставание, Сектор газа, Слезы, Сплин, У костра, Чиж и Ко, Школа

    Показать все теги