Войти
Навигация

Наша группа

0-9  A-Z  А  Б  В  Г  Д  Е  Ж  З  И  К  Л  М  Н  О  П  Р  С  Т  У  Ф  Х  Ц  Ч  Ш  Щ  Ю  Я 

Аккорды к песне ZZ Top - Tush

Просмотров: 609, Комментариев: 0
 (голосов: 0)




Транспонировать:
---------------|------------|----------------|---------------|
---------------|-----5------|----------------|---------------|
----5---5-3----|-5---5-3----|----5---5-3-----|-5---5-3-------|
----5---5-3----|-5---5-3----|----5---5-3-----|-5---5-3-------|
---------------|------------|----------------|---------------|
3-3---3------3-|---3------1/|3-3---3-----3-3-|---3-------3-1/|

Ive been up Ive been down take my word
---------------|-------------|----------------|--------------|
---------------|-----5-------|----------------|--------------|
----5---5-3----|-5---5-3-----|----5---5-3-----|---5---5-3----|
----5---5-3----|-5---5-3-----|----5---5-3-----|---5---5-3----|
---------------|-------------|----------------|--------------|
3-3---3------3-|---3-----3-1/|3-3---3-----3-1/|3-3--3-----3--|

my way round I aint askin for much
--------------|--------------|------------------------|-------------------|
---5----------|--------------|------------------------|-------------------|
---5---5-3----|---5---5-3----|------------------------|-------------------|
---5---5-3----|---5---5-3----|-------10----10---10----|-10----------------|
--------------|--------------|-10-10-12-12-13---12-12-|-10-10-------------|
-3---3------3-|-3---3------6-|-8--8-----------8-------|-8--8--0-0-1-1-2-2-|

I said Lord take me downtown Im just lookin for some
----------------|---------------|-----------------|-----------------| tush.
----------------|---------------|-----------------|-----------------|
----5---5-3-----|-5---5-3---5---|-2-2-4-4-5-5-4---|-----------------|
----5---5-3-----|-5---5-3---5-0-|-0-0-0-0-0-0-0---|-5-5-7-7-5-5-7-0-|
----------------|---------------|-----------------|-3-3-3-3-3-3-3---|
3-3---3-----3-3-|---3-----------|-----------------|-----------------|

Ive been bad...(into the second verse)
------------------|----------------|
------------------|----------------|
------------------|--------------0-|
------------------|---5-6-7------0-|
------7---8-8-7-7-|-5-3-4-5--------|
-/3-3---3-3-3-3-3-|-3--------------|


First solo:

----|------------------|-------------------|------------------------|
----|------------------|-------------------|-----------11/12--------|
----|-----12-12----12--|-12--12--12--12⁄10-|/12--12-----------------|
-12p|0/12--------------|-----12------------|--------12--------12----|
----|------------------|-------------------|---------------------12-|
----|------------------|-------------------|------------------------|

---------------------------|---------------3-|-----------------|
-11/12---------------------|----5⁄--/5---5---|-----------------|
----------12----------12⁄3-|-5------/5-------|-5---3---5--/3/3-|
-------12----12⁄10/12------|--X--------5-----|---5---5---5-----|
---------------------------|-----------------|-----------------|
---------------------------|-----------------|-----------------|

--------------------|---------------------|-------------------|
----/12-------------|---/12---------------|/7---6/7---------0-|
-0--/12------3P0--3P|0--/12---------------|/7⁄5-----7---7⁄5---|
----/12-------------|---/12---------12⁄7--|/7-------7---7⁄5---|
--------------------|---------------------|-------------------|
--------------------|---------------------|-------------------|

------------------|----------------------|------------------|
/5----------------|----------/11---------|------------------|
/5---3---5--/3-/3p|0--/12--------12⁄10---|/10---------------|
/5-5---0----------|--0----12----------12-|------------------|
-----------5------|----------------------|------------------|
------------------|----------------------|------------------|

--------------------------------|-------------------------------|
-------12----12----12----12-12⁄-|-------12-12-12⁄10-------12----|
--------------------------------|-------------------------------|
-10/12----12----12----12--------|-10/12-------------10/12----12-|
--------------------------------|-------------------------------|
--------------------------------|-------------------------------|

-------------------------------------|--------------------------|
-------12----12----12⁄10-------12----|-12⁄10---------10----12⁄--|
-------------------------------------|---------12-10-10-12-12⁄--|
-10/12----12----12-------10/12----12-|------10------------------|
-------------------------------------|--------------------------|
-------------------------------------|--------------------------|

--------------------|----------------|-------------------------------|
-/5---5----5----6---|----5--5--------|---------------/11-/11---------|
-/5---------------6⁄|5----------5⁄3--|-12-12-12⁄10----------12⁄10----|
--------------------|--5-------------|------------12--------12⁄10-12-|
--------------------|----------------|-------------------------------|
--------------------|----------------|-------------------------------|

---------------------------|----------------19-------------|
-------11-12------------20-|-20-20-20⁄18-------18⁄17-------|
-12-----------12--17/19----|-------------19----------17/19-|
----12--------12-----------|-------------19----------------|
---------------------------|-------------------------------|
---------------------------|-------------------------------|

-15-----------------------------|--------------------------|
---14⁄13-11/12-11/12---12⁄10----|-12-12-12⁄10--------------|
-----------------------12⁄10----|-12-12-12⁄10----12--12⁄10-|
-----------------------------12-|-------------12-----12⁄10-|
--------------------------------|--------------------------|
--------------------------------|--------------------------|

Take me back...
------------------------|
------------------------|
---/12-----14------14/--|
-9----------------------|
------------------------|
------------------------|
Добавить новый гитарный бой
Дата: 7-11-2015, 13:32, Добавил: Aurondel, Раздел: Иностранные
Информация
Посетители, находящиеся в группе Гости, не могут оставлять комментарии к данной публикации.



Популярные песни
  • Титаник
  • Пираты карибского моря
  • Все бабы суки бабы бляди
  • Над старым аулом
  • Ламбада
  • Солдат (из к/ф Мы из будущего)
  • Мальчишка-наркоман
  • За Родину
  • Орленок - Звезды
  • Девочка не надо слезы лить напрасно


  • Облако тегов
    , 8 марта, Ария, Армия, би-2, блядь, Валерий Скутин, Война, Грусть, Дворовые, ддт, Звери, Измена, Иностранные, интересное, Кино, КиШ, Красиво, Кузя, лагерное, лагерь, Лирика, Любовь, Любэ, ляпис трубецкой, Многоточие, Наутилус Помпилиус, о жизни, песни, песня, под гитару, Приколы, Разное, Расставание, Сектор газа, Слезы, Сплин, У костра, Чиж и Ко, Школа

    Показать все теги