Войти
Навигация

Мини-чат
Написалzhelinscky
23 октября 2016
привет всем заходите на портал гитаристов akkordmovi.com
Написалzhelinscky
23 октября 2016
всем привет заходите на новый портал гитаристов [leech=http://akkordmovi.com]akko
rdmovi.com[/leech]
НаписалВексель
7 августа 2016
Всем привет
НаписалAragorn
4 апреля 2016
привет
НаписалVurf
1 марта 2016
шалом, бездельники!)
НаписалHohner
8 февраля 2016
https://www.youtube.com/watch?v=9
wG5oHsYkvA
НаписалHohner
8 февраля 2016
smile-03
Написалslaveckii77
24 января 2016
slaveckii77, Я тут))))
Написалslaveckii77
24 января 2016
Где все ??? ЭЭЭ народ?
Написалslaveckii77
24 января 2016
Где все ??? ЭЭЭ народ?

Только зарегистрированные пользователи могут отправлять сообщения.

Наша группа

0-9  A-Z  А  Б  В  Г  Д  Е  Ж  З  И  К  Л  М  Н  О  П  Р  С  Т  У  Ф  Х  Ц  Ч  Ш  Щ  Ю  Я 

Аккорды к песне AC/DC - Stiff Upper Lip (2 вариант)

Просмотров: 641, Комментариев: 0
 (голосов: 0)




Транспонировать:
E |--------------------------------------------------|
B |--8^--10--8-----10--7--5------------7--5----------|
G |-------------9------7--5--6h--------7--5----------|
D |--------------------------------------------------|
A |--0---0---0--0---0--0--0--0---0--0--0--0----------|
E |--------------------------------------------------|x6


Solo
E |----------------------------------------------------------------------8b--5-x|
B |--17b-17b--------------------x-x-5-5b⁄⁄---------5----5-7b-5-7-5b------7b--5-x|
G |--17b-17b--------------------x-x-5-5b⁄⁄⁄--------5----5-7b-5-7-5b-------------|
D |---------19~~-21⁄⁄⁄⁄⁄⁄⁄⁄⁄----------------7-x-7~---7m-------------7m----------|
A |--------------21⁄⁄⁄⁄⁄⁄⁄⁄⁄⁄---------------------------------------------------|
E |-----------------------------------------------------------------------------|

E |5-8b-5-x-8b-5--------------------------------------------------9-10-11-12-9--|
B |5-7b-5-x-7b-5-8-7-5--------------------10~~----12-13r12-10~~-10------------10|
G |--------------7-7-5h6-----------------------11-------------------------------|
D |---------------------7m-x-7~--10-12-14---------------------------------------|
A |------------------------7-------------0m-------------------------------------|
E |-----------------------------------------------------------------------------|

E |------------------------//8--8-8-8-8-8-8-8////17--18b-18b-18b----------8b-5--|
B |10~~-10r8---8--8-8⁄⁄⁄--///7--7-7-7-7-7-7-7////17--17b-17b-17b----------7b-5--|
G |---------9m-7--7-7⁄⁄⁄⁄-------------------------------------------------------|
D |--------------------------------------------------------------21⁄⁄⁄⁄⁄--------|
A |--------------------------------------------------------------21⁄⁄⁄⁄⁄⁄-------|
E |-----------------------------------------------------------------------------|

E |--8b--5-------------------------------------------------|
B |--7b--5-5-8-8-8-8-7-7~-7-7-7-7-7-7-7------5b----5-7-5~--|
G |----------7-7-7-7-7-7~-7-7-7-7-7-7-7------5b----5-7-5~--|
D |-------------------------------------7m-7----7m---------|
A |--------------------------------------------------------|
E |--------------------------------------------------------|
note that angus plays
E |----------------------------------------------------------20~~--|
B |----------------------------------------------------------------|
G |----------------------------------------3/////21----------------|
D |----5b-7~~--(then A few seconds later)--3/////21⁄⁄⁄⁄⁄⁄0--x------|
A |---x------------------------------------3/////21⁄⁄⁄⁄⁄⁄0--x------|
E |--x----------------------------------------------⁄⁄⁄⁄⁄0--x------|


E |-------------------|
B |--888888888888-----|
G |--------------9~~--|
D |-------------------|
A |-------------------|
E |-------------------|

Outro (turn to bass)
E |------5-----------5---5-8--|
B |------5-8-5-------5-8-5-7--|
G |-----x--7-5h6----x---------|
D |----x--------7--x----------|
A |---x-----------x-----------|
E |--x-----------x------------|
Добавить новый гитарный бой
Дата: 3-02-2014, 20:41, Добавил: Aurondel, Раздел: Иностранные
Информация
Посетители, находящиеся в группе Гости, не могут оставлять комментарии к данной публикации.



Популярные песни
  • Титаник
  • Пираты карибского моря
  • Все бабы суки бабы бляди
  • Над старым аулом
  • Ламбада
  • Солдат (из к/ф Мы из будущего)
  • Мальчишка-наркоман
  • За Родину
  • Девочка не надо слезы лить напрасно
  • Орленок - Звезды


  • Облако тегов
    , 8 марта, Ария, Армия, би-2, блядь, Война, гитарное, Гражданская оборона, Грусть, Дворовые, ддт, Звери, Измена, Иностранные, интересное, Кино, КиШ, Красиво, Кузя, лагерное, лагерь, Лирика, Любовь, Любэ, ляпис, Многоточие, Наутилус Помпилиус, о жизни, песня, под гитару, Приколы, Разное, Расставание, Сектор газа, Слезы, Сплин, У костра, Чиж и Ко, Школа

    Показать все теги