Войти
Навигация

Мини-чат
Написалzhelinscky
23 октября 2016
привет всем заходите на портал гитаристов akkordmovi.com
Написалzhelinscky
23 октября 2016
всем привет заходите на новый портал гитаристов [leech=http://akkordmovi.com]akko
rdmovi.com[/leech]
НаписалВексель
7 августа 2016
Всем привет
НаписалAragorn
4 апреля 2016
привет
НаписалVurf
1 марта 2016
шалом, бездельники!)
НаписалHohner
8 февраля 2016
https://www.youtube.com/watch?v=9
wG5oHsYkvA
НаписалHohner
8 февраля 2016
smile-03
Написалslaveckii77
24 января 2016
slaveckii77, Я тут))))
Написалslaveckii77
24 января 2016
Где все ??? ЭЭЭ народ?
Написалslaveckii77
24 января 2016
Где все ??? ЭЭЭ народ?

Только зарегистрированные пользователи могут отправлять сообщения.

Наша группа

0-9  A-Z  А  Б  В  Г  Д  Е  Ж  З  И  К  Л  М  Н  О  П  Р  С  Т  У  Ф  Х  Ц  Ч  Ш  Щ  Ю  Я 

Аккорды к песне AC/DC - Shook Me All Night Long (2 вариант)

Просмотров: 457, Комментариев: 0
 (голосов: 0)




Транспонировать:
E ------------------|-3---------------------------------------------|
B ------------------|----3--6---------------------------------------|
G --5b(7)-----------|----------5b(6)vvv-3b(4)-----------------------|
D ------------------|--------------------------5------5---5--3------|
A ------------------|-----------------------------5~~(5)-------5--3-|
E ------------------|-----------------------------------------------|

PM--| PH PM PH ~~~
E -------------^---------------------^--------------------------|
B ------------^---------------------^-------------------6--6----|
G -----------3b(1/4)---------------3b(1/4)---%--%--5/7----------|
D ---------x----------5--(0)---5--------------------------------|
A --1-----------------------------------------------------------|
E -----3--------------------------------------------------------|

~~~ ~~~~ PH
E ---------------------------------10-----------------^-----------|
B --------8--8--------8--10b(12)vvvvvv(10b)r10--8----8---11b(13)vv|
G --7//9-----------9----------------------------------------------|
D ----------------------------------------------------------------|
A ----------------------------------------------------------------|
E ----------------------------------------------------------------|

E ----------------------------------------------15-----------------|
B --10b(12)vvv--8-----8⁄-------18b(20)vvv--18b------15--18---------|
G -----------------9-------%--------------------------------17b(19)|
D -----------------------------------------------------------------|
A -----------------------------------------------------------------|
E -----------------------------------------------------------------|

E --------------------------------------------------------------|
B ---------------17--------------18------18---------------------|
G --r17--15------17--15--17b(19)----17b------17bvvr17--15b(1/4)-|
D -----------17-------------------------------------------------|
A --------------------------------------------------------------|
E --------------------------------------------------------------|
~~~~ ~~~
E ----------------------------18b(20)----18b(19)-----17b(18)r17p15-|
B ------17--15--17--15⁄⁄--15---------------------------------------|
G ------17--15--17--15⁄⁄-------------------------------------------|
D --17-------------------------------------------------------------|
A -----------------------------------------------------------------|
E -----------------------------------------------------------------|

E --17-----15-------------15------------------------------------|
B -----17------18b(20)vvv-----18--------------------------------|
G ---------------------------------17b(18)vvr17p15--17/19vvvvv⁄-|
D --------------------------------------------------------------|
A --------------------------------------------------------------|
E --------------------------------------------------------------|
~~~~ ~~~~~
E ------------15-----15---15--17b(18)vv17--15-----|
B -----15/17-----17-------------------------------|
G --%---------------------------------------------|
D ------------------------------------------------|
A ------------------------------------------------|
E ------------------------------------------------|
You really took me and

G5 Csus2 G/B D5 D Csus2 G/B
You, shook me all night long. Ah
You, shook me all night long. Yeah Yeah you
shook me all night long.
Добавить новый гитарный бой
Дата: 3-02-2014, 17:28, Добавил: Aurondel, Раздел: Иностранные
Информация
Посетители, находящиеся в группе Гости, не могут оставлять комментарии к данной публикации.



Популярные песни
  • Титаник
  • Пираты карибского моря
  • Все бабы суки бабы бляди
  • Над старым аулом
  • Ламбада
  • Солдат (из к/ф Мы из будущего)
  • Мальчишка-наркоман
  • За Родину
  • Девочка не надо слезы лить напрасно
  • Орленок - Звезды


  • Облако тегов
    , 8 марта, Ария, Армия, би-2, блядь, Война, гитара, Грусть, Дворовые, ддт, Звери, Измена, Иностранные, интересное, Кино, КиШ, Красиво, Кузя, лагерное, лагерные песни, лагерь, Лирика, Любовь, Любэ, Многоточие, Море, Наутилус Помпилиус, о жизни, песня, под гитару, Приколы, Разное, Расставание, Сектор газа, Слезы, Сплин, У костра, Чиж и Ко, Школа

    Показать все теги