Войти
Навигация

Мини-чат
Написалzhelinscky
23 октября 2016
привет всем заходите на портал гитаристов akkordmovi.com
Написалzhelinscky
23 октября 2016
всем привет заходите на новый портал гитаристов [leech=http://akkordmovi.com]akko
rdmovi.com[/leech]
НаписалВексель
7 августа 2016
Всем привет
НаписалAragorn
4 апреля 2016
привет
НаписалVurf
1 марта 2016
шалом, бездельники!)
НаписалHohner
8 февраля 2016
https://www.youtube.com/watch?v=9
wG5oHsYkvA
НаписалHohner
8 февраля 2016
smile-03
Написалslaveckii77
24 января 2016
slaveckii77, Я тут))))
Написалslaveckii77
24 января 2016
Где все ??? ЭЭЭ народ?
Написалslaveckii77
24 января 2016
Где все ??? ЭЭЭ народ?

Только зарегистрированные пользователи могут отправлять сообщения.

Наша группа

0-9  A-Z  А  Б  В  Г  Д  Е  Ж  З  И  К  Л  М  Н  О  П  Р  С  Т  У  Ф  Х  Ц  Ч  Ш  Щ  Ю  Я 

Аккорды к песне AC/DC - Let There Be Rock (2 вариант)

Просмотров: 413, Комментариев: 0
 (голосов: 0)




Транспонировать:
~ ~ P P ~
E |--------------|--------------|------------------------|
H |--------------|--------------|------------------------|
G |--------------|--------------|------5--7--8-7-5--7-5--|
D |---7--7--7⁄---|---7--7--7⁄---|---7--------------------|
A |--------------|--------------|------------------------|
E |--------------|--------------|------------------------|

P P P P
E |------------------------------------------------------|
H |------------------------------------------------------|
G |-----5--7--8-7-5--7-----5--7--8-7-5--7-----5--5-------|
D |--7------------------7------------------7-------------|
A |------------------------------------------------------|
E |------------------------------------------------------|


E |-----------------| |-----------| |--------|
H |-----------------| |-----------| |--------|
G |--------5--5--5--| |-----5--5--| x5 |-----5--|
D |--7--7-----------| |--7--------| |--7-----|
A |-----------------| |-----------| |--------|
E |-----------------| |-----------| |--------|


E |----------| |--------| |-----------| |--------|
H |----------| |--------| |-----------| |--------|
G |-----5--5-| x9 |-----7--| |-----7--7--| x5 |-----7--|
D |--7-------| |--7-----| |--9--------| |--9-----|
A |----------| |--------| |-----------| |--------|
E |----------| |--------| |-----------| |--------|


E |-----------| |--------|
H |-----------| |--------|
G |-----7--7--| x3 |-----7--|
D |--9--------| |--9-----|
A |-----------| |--------|
E |-----------| |--------|


And here we go now, folks!
________
| 3 | <----- (pull-offs)
E |----------17--------------------------------------------|
H |--20(22)------20-17-------------------------19--17------|
G |--------------------17--17------19--17------------------|
D |----------------------------19----------19----------19--|
A |--------------------------------------------------------|
E |--------------------------------------------------------|


E |------------------| Warning!
H |----------10--10--| The first
G |--12(14)----------| x4 bend is
D |------------------| slower than
A |------------------| the other ones.
E |------------------|


E |----------------------------------|
H |----------10----------10----------|
G |--12(14)------12(14)------12(14)--|
D |----------------------------------|
A |----------------------------------|
E |----------------------------------|
Добавить новый гитарный бой
Дата: 1-02-2014, 14:55, Добавил: Aurondel, Раздел: Иностранные
Информация
Посетители, находящиеся в группе Гости, не могут оставлять комментарии к данной публикации.



Популярные песни
  • Титаник
  • Пираты карибского моря
  • Все бабы суки бабы бляди
  • Над старым аулом
  • Ламбада
  • Солдат (из к/ф Мы из будущего)
  • Мальчишка-наркоман
  • За Родину
  • Девочка не надо слезы лить напрасно
  • Орленок - Звезды


  • Облако тегов
    , 8 марта, Ария, Армия, би-2, блядь, Война, гитара, Грусть, Дворовые, ддт, Звери, Измена, Иностранные, интересное, Кино, КиШ, Красиво, Кузя, лагерное, лагерные песни, лагерь, Лирика, Любовь, Любэ, Многоточие, Море, Наутилус Помпилиус, о жизни, песня, под гитару, Приколы, Разное, Расставание, Сектор газа, Слезы, Сплин, У костра, Чиж и Ко, Школа

    Показать все теги