Войти
Навигация

Мини-чат
Написалzhelinscky
23 октября 2016
привет всем заходите на портал гитаристов akkordmovi.com
Написалzhelinscky
23 октября 2016
всем привет заходите на новый портал гитаристов [leech=http://akkordmovi.com]akko
rdmovi.com[/leech]
НаписалВексель
7 августа 2016
Всем привет
НаписалAragorn
4 апреля 2016
привет
НаписалVurf
1 марта 2016
шалом, бездельники!)
НаписалHohner
8 февраля 2016
https://www.youtube.com/watch?v=9
wG5oHsYkvA
НаписалHohner
8 февраля 2016
smile-03
Написалslaveckii77
24 января 2016
slaveckii77, Я тут))))
Написалslaveckii77
24 января 2016
Где все ??? ЭЭЭ народ?
Написалslaveckii77
24 января 2016
Где все ??? ЭЭЭ народ?

Только зарегистрированные пользователи могут отправлять сообщения.

Наша группа

0-9  A-Z  А  Б  В  Г  Д  Е  Ж  З  И  К  Л  М  Н  О  П  Р  С  Т  У  Ф  Х  Ц  Ч  Ш  Щ  Ю  Я 

Аккорды к песне AC/DC - If You Want Blood You'Ve Got It (2 вариант)

Просмотров: 341, Комментариев: 0
 (голосов: 0)




Транспонировать:
solo 1
slowly
E :|----------------------------------------------5---------------------|
B :|----------------------------------------7b~~----5--9b--10-8---------|
G :|---------5-7-5---5--5-5---5-5-5---5-5-5---------------------9-7h8p7-|
D :|---------------7--------7-------7-----------------------------------|
A :|--------------------------------------------------------------------|
E :|-3b-----------------------------------------------------------------|

E :------------10~~⁄-7/10~~----10-10----10-10-----10-10--10~~~----5-8-5-8-5-|
B :-------------------------12-------12-------12b---------------8-----------|
G :--7-5b-------------------------------------------------------------------|
D:9 ------7-7---------------------------------------------------------------|
A :-------------------------------------------------------------------------|
E :-------------------------------------------------------------------------|

E :------------------------------------------------------------------|
B:8 -5-8-5---------------------------5-5---5-5---5-5-----------------|
G :--------7-5-7-5---5-7-7--5--------5-5---5-5---5-5-etc...---5⁄-----|
D :----------------7----------7~~--7-----7-----7-------------------5b|
A :------------------------------------------------------------------|
E :------------------------------------------------------------------|

E :----------17b~~~-----------------------------------------|
B :-----0/--------------------------------------------------|
G :/17------------------------------------------------------|
D :---------------------------------------------------------|
A :---------------------------------------------------------|
E :---------------------------------------------------------|

solo 2
E :----------------------------------------------------------------17-------|
B :-17b-------------------------------17------------------------------17----|
G :-----17--14~~--------14-16-16b-16b-----16b-14h16p14-----14--16b-------16b|
D :---------------14-16---------------------------------16------------------|
A :-------------------------------------------------------------------------|
E :-------------------------------------------------------------------------|

E :17------------------------------------------------------17~~~-14-17-17-|
B :---17----------------17----17------------17----17----17----------------|
G :------16b-etc...--16----16----16-14~~-16----16----16-------------------|
D :-----------------------------------------------------------------------|
A :-----------------------------------------------------------------------|
E :-----------------------------------------------------------------------|

E :14-17-17~~~--20b--20b-20b-20b-20b~~~~--17-20-19-17h19p17--17b---|
B :----------------------------------------------------------20b---|
G :----------------------------------------------------------------|
D :----------------------------------------------------------------|
A :----------------------------------------------------------------|
E :----------------------------------------------------------------|

try repeating the last part of the second solo
Добавить новый гитарный бой
Дата: 30-01-2014, 22:12, Добавил: Aurondel, Раздел: Иностранные
Информация
Посетители, находящиеся в группе Гости, не могут оставлять комментарии к данной публикации.



Популярные песни
  • Титаник
  • Пираты карибского моря
  • Все бабы суки бабы бляди
  • Над старым аулом
  • Ламбада
  • Солдат (из к/ф Мы из будущего)
  • Мальчишка-наркоман
  • За Родину
  • Девочка не надо слезы лить напрасно
  • Орленок - Звезды


  • Облако тегов
    , 8 марта, Ария, Армия, би-2, блядь, Война, гитарное, Гражданская оборона, Грусть, Дворовые, ддт, Звери, Измена, Иностранные, интересное, Кино, КиШ, Красиво, Кузя, лагерное, лагерь, Лирика, Любовь, Любэ, ляпис, Многоточие, Наутилус Помпилиус, о жизни, песня, под гитару, Приколы, Разное, Расставание, Сектор газа, Слезы, Сплин, У костра, Чиж и Ко, Школа

    Показать все теги