Войти
Навигация

Мини-чат
Написалzhelinscky
23 октября 2016
привет всем заходите на портал гитаристов akkordmovi.com
Написалzhelinscky
23 октября 2016
всем привет заходите на новый портал гитаристов [leech=http://akkordmovi.com]akko
rdmovi.com[/leech]
НаписалВексель
7 августа 2016
Всем привет
НаписалAragorn
4 апреля 2016
привет
НаписалVurf
1 марта 2016
шалом, бездельники!)
НаписалHohner
8 февраля 2016
https://www.youtube.com/watch?v=9
wG5oHsYkvA
НаписалHohner
8 февраля 2016
smile-03
Написалslaveckii77
24 января 2016
slaveckii77, Я тут))))
Написалslaveckii77
24 января 2016
Где все ??? ЭЭЭ народ?
Написалslaveckii77
24 января 2016
Где все ??? ЭЭЭ народ?

Только зарегистрированные пользователи могут отправлять сообщения.

Наша группа

0-9  A-Z  А  Б  В  Г  Д  Е  Ж  З  И  К  Л  М  Н  О  П  Р  С  Т  У  Ф  Х  Ц  Ч  Ш  Щ  Ю  Я 

Аккорды к песне Бетховен Людвиг ван - К Элизе (2 вариант)

Просмотров: 615, Комментариев: 0
 (голосов: 0)




Транспонировать:
Часть A:
E |-12--11--|-12--11--12-------------|-----------------------|
B |---------|-------------12--15--13-|-----------------------|
3 G |--------o|o-----------------------|-14-----------------14-|
- D |--------o|o-----------------------|----------------14-----|
4 A |---------|------------------------|-0------12--15---------|
E |---------|------------------------|----12-----------------|

E |-------------------------|-----------------12--11-|
B |-12------------------12--|-13---------------------|
G |-----------------13------|------------------------|
D |-------------14----------|-------------14---------|
A |---------11--------------|-0-------12-------------|
E |-0---12------------------|-----12-----------------|

E |-12--11--12--------------|------------------------|
B |-------------12--15--13--|------------------------|
G |-------------------------|-14------------------14-|
D |-------------------------|-----------------14-----|
A |-------------------------|-0-------12--15---------|
E |-------------------------|-----12-----------------|

E |-------------------------|------------------12--11-|
B |-12--------------13--12--|-------------------------|
G |-------------------------|-14----------------------|
D |-------------14----------|-------------------------|
A |---------11--------------|-0-------12--------------|
E |-0---12------------------|-----12------------------|

E |-12--11--12--------------|------------------------|
B |-------------12--15--13--|------------------------|
G |-------------------------|-14------------------14-|
D |-------------------------|-----------------14-----|
A |-------------------------|-0-------12--15---------|
E |-------------------------|-----12-----------------|

E |-------------------------|-----------------12--11-|
B |-12------------------12--|-13---------------------|
G |-----------------13------|------------------------|
D |-------------14----------|-------------14---------|
A |---------11--------------|-0-------12-------------|
E |-0---12------------------|-----12-----------------|

E |-12--11--12--------------|------------------------|
B |-------------12--15--13--|------------------------|
G |-------------------------|-14------------------14-|
D |-------------------------|-----------------14-----|
A |-------------------------|-0-------12--15---------|
E |-------------------------|-----12-----------------|

E |-------------------------|--------------------------|
B |-12--------------13--12--|-------------12--13--15---|
G |-------------------------|-14---------------------o-|
D |-------------14----------|------------------------o-|
A |---------11--------------|-0-------12---------------|
E |-0---12------------------|-----12-------------------|

Часть B:

E |-12--------------13--12--|-10--------------12-----|
B |-------------------------|--------(0)----------15-|
G |o------------12----------|----(0)-----------------|
D |o--------10--------------|-------------15---------|
A |-----10------------------|-----10--14-------------|
E |-8-----------------------|-3----------------------|

E |-------------------------|-----------------12----|
B |-13--------------15--13--|-12--------------------|
G |-------------------------|-----------------------|
D |-------------14----------|---------14--14--------|
A |-0-------12--------------|-----------------------|
E |-----12------------------|-0---12--------------0-|

E |-----12--24----------10--|-12----------11--12--11---|
B |-------------------------|--------------------------|
G |-------------------------|------------------------o-|
D |-------------------------|------------------------o-|
A |-------------------------|--------------------------|
E |-12----------11--12------|-----11--12---------------|

Часть A:

E |-12--11--12--------------|------------------------|
B |-------------12--15--13--|------------------------|
G |-------------------------|-14------------------14-|
D |-------------------------|-----------------14-----|
A |-------------------------|-0-------12--15---------|
E |-------------------------|-----12-----------------|

E |-------------------------|-----------------12--11-|
B |-12------------------12--|-13---------------------|
G |-----------------13------|------------------------|
D |-------------14----------|-------------14---------|
A |---------11--------------|-0-------12-------------|
E |-0---12------------------|-----12-----------------|

E |-12--11--12--------------|------------------------|
B |-------------12--15--13--|------------------------|
G |-------------------------|-14------------------14-|
D |-------------------------|-----------------14-----|
A |-------------------------|-0-------12--15---------|
E |-------------------------|-----12-----------------|

E |-------------------------|--------------------------|
B |-12--------------13--12--|-------------12--13--15---|
G |-------------------------|-14---------------------o-|
D |-------------14----------|------------------------o-|
A |---------11--------------|-0-------12---------------|
E |-0---12------------------|-----12-------------------|

Играется снова часть В, следом:

Часть A:

E |-12--11--12--------------|------------------------|
B |-------------12--15--13--|------------------------|
G |-------------------------|-14------------------14-|
D |-------------------------|-----------------14-----|
A |-------------------------|-0-------12--15---------|
E |-------------------------|-----12-----------------|

E |-------------------------|-----------------12--11-|
B |-12------------------12--|-13---------------------|
G |-----------------13------|------------------------|
D |-------------14----------|-------------14---------|
A |---------11--------------|-0-------12-------------|
E |-0---12------------------|-----12-----------------|

E |-12--11--12--------------|------------------------|
B |-------------12--15--13--|------------------------|
G |-------------------------|-14------------------14-|
D |-------------------------|-----------------14-----|
A |-------------------------|-0-------12--15---------|
E |-------------------------|-----12-----------------|

E |-------------------------|-------------8---8---8----|
B |-12--------------13--12--|---------------------0----|
G |-------------------------|-14----------9---10--0--o-|
D |-------------14----------|-------------10--10--10-o-|
A |---------11--------------|-0-------12--13--12--13---|
E |-0---12------------------|-----12-------------------|
Добавить новый гитарный бой
Дата: 22-01-2014, 15:41, Добавил: Aurondel, Раздел: Бетховен Людвиг ван
Информация
Посетители, находящиеся в группе Гости, не могут оставлять комментарии к данной публикации.



Популярные песни
  • Титаник
  • Пираты карибского моря
  • Все бабы суки бабы бляди
  • Над старым аулом
  • Ламбада
  • Солдат (из к/ф Мы из будущего)
  • Мальчишка-наркоман
  • За Родину
  • Девочка не надо слезы лить напрасно
  • Орленок - Звезды


  • Облако тегов
    , 8 марта, Ария, Армия, би-2, блядь, Война, гитара, Грусть, Дворовые, ддт, Звери, Измена, Иностранные, интересное, Кино, КиШ, Красиво, Кузя, лагерное, лагерные песни, лагерь, Лирика, Любовь, Любэ, Многоточие, Море, Наутилус Помпилиус, о жизни, песня, под гитару, Приколы, Разное, Расставание, Сектор газа, Слезы, Сплин, У костра, Чиж и Ко, Школа

    Показать все теги