Войти
Навигация

Наша группа

0-9  A-Z  А  Б  В  Г  Д  Е  Ж  З  И  К  Л  М  Н  О  П  Р  С  Т  У  Ф  Х  Ц  Ч  Ш  Щ  Ю  Я 

Аккорды к песне King Crimson - Starless

Просмотров: 237, Комментариев: 0
 (голосов: 0)




Транспонировать:
ритм 4/4:


Бас:

|Bb/D |Bb/D |A/C
|--------7-------|----------7-----|--------7-------|
|0---0-----------|0---0-----------|0---0-----------|
|----------------|----------------|----------------|
|----------------|----------------|----------------|
^ . ^ . ^ . ^ . ^ . ^ . ^ . ^ . ^ . ^ . ^ . ^ .

|A/C |Bb/D |Bb/D
|----------7-----|--------7-------|--------7-------|
|0---0-----------|0---0-----------|0---0-----------|
|--0-------------|----------------|--0-------------|
|----------------|----------------|----------------|
^ . ^ . ^ . ^ . ^ . ^ . ^ . ^ . ^ . ^ . ^ . ^ .

|A/C |F#/A |G/Bb
|--------7-------|----------------|--------7-------|
|0---0-----------|0---------------|0---0-----------|
|----------------|----------------|----------------|
|----------------|----------------|----------------|
^ . ^ . ^ . ^ . ^ . ^ . ^ . ^ . ^ . ^ . ^ . ^ .

Гитара:

|G/Bb Dm(FDA) |Cm (GEbC) |Cm (GEbC) |
/tri-4 /tri-4
|----------------|6---------------|(6)-5-6-5--3----|
|----------------|----------------|--------------4-|
|r-------r--5--7-|----------------|----------------|
|----------------|----------------|----------------|
|----------------|----------------|----------------|
|----------------|----------------|----------------|
^ . ^ . ^ . ^ . ^ . ^ . ^ . ^ . ^ . ^ . ^ . ^ .

|------7---------|--------5-------|5---------------|
|0---7------0--7-|--------------5-|--5-------------|
|----------------|3---3-----------|----3---------3-|
|----------------|----------------|----------------|

|Dm (FDA) |Dm (FDA) |Gm (DBbG)
/tri-4
|----------------|----------------|----------------|
|3---------------|(3)--------3--6-|----------------|
|----------------|--------3-------|2---3---2-------|
|----------------|----------------|----------------|
|----------------|----------------|----------------|
|----------------|----------------|----------------|
^ . ^ . ^ . ^ . ^ . ^ . ^ . ^ . ^ . ^ . ^ . ^ .

Бас:

|--------7-------|7---------------|--------0-------|
|0---0---------7-|--7-0-----------|----------------|
|----------------|----------------|----------------|
|----------------|----------------|3---3-----------|

Гитара:

|Gm (DBbG) add F |Cm (GEbC) |Cm (GEbC) |
/tri-4 /tri-4
|----------------|6---------------|(6)-5-6-5--3----|
|----------------|----------------|--------------4-|
|(2)-----3--5--7-|----------------|----------------|
|----------------|----------------|----------------|
|----------------|----------------|----------------|
|----------------|----------------|----------------|
^ . ^ . ^ . ^ . ^ . ^ . ^ . ^ . ^ . ^ . ^ . ^ .

Бас:

|0---------------|--------8-------|----------------|
|----------------|------------0---|----------------|
|--------8-------|6---6-----------|3-------------3-|
|----------------|----------------|----------------|

|Dm (FDA) |Dm (FDA) |Gm (DBbG)
/tri-4 vibrato
|----------------|----------------|----------------|
|3---------------|(3)--------3--6-|----------------|
|----------------|--------3-------|2---------------|
|----------------|----------------|----------------|
|----------------|----------------|----------------|
|----------------|----------------|----------------|
^ . ^ . ^ . ^ . ^ . ^ . ^ . ^ . ^ . ^ . ^ . ^ .

|----------------|7---7-----------|0---------------|
|0-------0-----7-|--7-------------|----------------|
|----------------|----------------|----------------|
|----------------|----------------|--------3-------|

|Gm (DBbG) (*)|Bb/D |Bb/D
|----------------|--------7-------|----------------|
|----------------|0---0-----------|0-0-----------0-|
|0-------1-----3-|----------------|----------------|
|----------------|----------------|----------------|
^ . ^ . ^ . ^ . ^ . ^ . ^ . ^ . ^ . ^ . ^ . ^ .

|A/C |A/C |Bb/D
|--------7-----7-|----------------|--------7-------|
|0---0-----------|0---0-----------|0---0-----------|
|----------------|----------------|----------------|
|----------------|----------------|----------------|
^ . ^ . ^ . ^ . ^ . ^ . ^ . ^ . ^ . ^ . ^ . ^ .

|Bb/D |A/C |F#/A
|----------------|--------7-------|--------7-------|
|0---0-----------|0---0-----------|0---0-----------|
|----------------|----------------|----------------|
|----------------|----------------|----------------|
^ . ^ . ^ . ^ . ^ . ^ . ^ . ^ . ^ . ^ . ^ . ^ .

|G/Bb
|----------------|
|0---0-----------|
|--0-------------|
|----------------|

Гитара:

|G/Bb add F |Cm (GEbC) |Cm (GEbC) |
/tri-4 /tri-4
|----------------|6---------------|(6)-5-6-5--3----|
|----------------|----------------|--------------4-|
|r-------r--5--7-|----------------|----------------|
|----------------|----------------|----------------|
|----------------|----------------|----------------|
|----------------|----------------|----------------|
^ . ^ . ^ . ^ . ^ . ^ . ^ . ^ . ^ . ^ . ^ . ^ .

Бас:

|----------------|--------5-------|5---------------|
|0---------------|--------------5-|--5-------------|
|----------------|3---3-----------|----3---------3-|
|----------------|----------------|------------3---|

Гитара:

|Dm (FDA) |Dm (FDA) |Gm (DBbG)
/tri-4
|----------------|-----------10-13|----------------|
|3---------------|(3)-----11------|----------------|
|----------------|----------------|14--15--14------|
|----------------|----------------|----------------|
|----------------|----------------|----------------|
|----------------|----------------|----------------|
^ . ^ . ^ . ^ . ^ . ^ . ^ . ^ . ^ . ^ . ^ . ^ .

Бас:

|--------7-------|7---7-----------|----------------|
|0---0---------7-|--7-------------|----------------|
|----------------|----------------|----------------|
|----------------|----------------|3---3-----------|

Гитара:

|Gm (DBbG) |Cm (GEbC) |Cm (GEbC) |
/tri-4 /tri-4
|----------------|18--------------|(18)-17-18-17-15---|
|----------------|----------------|-----------------16|
|14------15-17-19|----------------|-------------------|
|----------------|----------------|-------------------|
|----------------|----------------|-------------------|
|----------------|----------------|-------------------|
^ . ^ . ^ . ^ . ^ . ^ . ^ . ^ . ^ . ^ . ^ . ^ .

Бас:

|0---------------|--------8-------|-----------5-------|
|----------------|------------0---|-------------------|
|--------8-------|6---6-----------|3----------------3-|
|----------------|----------------|-------------------|

Гитара:

|Dm (FDA) |Dm (FDA) |Gm (DBbG) |Gm DBbG) |
vibrato
|----------------|--------13--10--|----------|----------|
|15--------------|(15)-11---------|10--------|(10)------|
|----------------|----------------|----------|----------|
|----------------|----------------|----------|----------|
|----------------|----------------|----------|----------|
|----------------|----------------|----------|----------|
^ . ^ . ^ . ^ . ^ . ^ . ^ . ^ . ^ .^.^.^. ^ .^.^.^.

Бас:

|--------7-------|7---------------|0---------|----------|
|0---0---------7-|--7-------------|-----0----|----------|
|----------------|----0-----------|----------|1----0----|
|----------------|----------------|----------|----------|

Гитара:

[Вступление вокала:] add C
|Gm (GDBb) |Gm(BbGD)|(BbGC) |Gm (GDBb) |
|--------0---|--------|--------|----------------|
|------------|--------|----6---|--------5--/75-|
|------------|1-------|--------|----------------|
|3---3-------|--------|4-------|3---3-----------|
^ . ^ . ^.^. ^.^.^.^. ^.^.^.^. ^ . ^ . ^ . ^ .

"Sun down. Dazzling day."

Бас:

add C add D
|D7(F#CA)|D7(F#CA)|Gm(GDBb)|Gm(GDBb)|Gm(BbGD)|Gm (BbGD)
|--------|--------|----0---|--------|--------|--------|
|4-------|0-------|--------|--------|--------|----0-1-|
|--------|----3-1-|--------|----0---|1-------|1-3-----|
|--------|--------|3-------|3-------|--------|--------|
^.^.^.^. ^.^.^.^. ^.^.^.^. ^.^.^.^. ^.^.^.^. ^.^.^.^.

"Gold Through my eyes. But my eyes Dark with-"



|F (CAF) |D (AF#D)|Gm(BbGD)|Gm (GDBb) |Gm (GDBb)
/tri8 /tri8
|--------|--------|----0---|------0-3--0(0)-|3--0----|
|3-------|--------|--------|--0(0)---------0|------4-|
|--------|--------|--------|1---------------|--------|
|--------|1-----2-|3-------|----------------|--------|
^.^.^.^. ^.^.^.^. ^.^.^.^. ^ . ^.^.^ . ^.^.^.^.

"in, on - ly see. Starless &"


Am- Am-
|D (F#DA)|D (F#DA)| (CAEb) | (CAEb) |Gm (BbGD)|Gm (BbGD)
|--------|--------|----5---|--------|53--3---|--------|
|(4)-----|0-0-----|--------|--------|---------|--------|
|--------|--------|3------3|3-3----3|---1----1|1-1----1|
|--------|--------|--------|--------|---------|--------|
^.^.^.^. ^.^.^.^. ^.^.^.^. ^.^.^.^. ^ .^.^.^. ^.^.^.^.

"... Bible Black"


|D (AF#D)|D (AF#D)|Gm(GDBb)|Gm(GDBb)|Gm(GDBb)|Gm (BbGD)
|----2---|----2---|0-------|--------|----0---|--------|
|--------|--------|----0---|--------|--------|--------|
|0------0|0-0-----|--------|1---0---|--------|1------1|
|--------|--------|--------|--------|3-3-----|--------|
^.^.^.^. ^.^.^.^. ^.^.^.^. ^.^.^.^. ^.^.^.^. ^.^.^.^.

"Old Friend"

add C
| Gm(BbGD|Gm(GDBb)|D7(F#CA)|D7(F#CA)|Gm(GDBb)|Gm (GDBb)
|--------|0-----0-|--------|--------|0---0---|--------|
|----6---|--------|4---0---|1---4---|--------|--------|
|--------|--------|--------|--------|--------|----0---|
|4-------|----3---|--------|--------|--------|3-------|
^.^.^.^. ^.^.^.^. ^.^.^.^. ^.^.^.^. ^.^.^.^. ^.^.^.^.

"Chari - ty. Cruel twisted smile. And the"

add D high add Bb
|Gm(BbGD)|Gm(BbGD)|F (FCA) |D (AF#D)|Gm(BbGD)|Gm (GDBb)
|--------|--------|--------|--------|--------|0-------|
|--------|----0-1-|3-------|--------|--------|----0---|
|1-------|1-3-----|--------|--------|--------|--------|
|--------|--------|--------|1---3---|3-------|--------|
^.^.^.^. ^.^.^.^. ^.^.^.^. ^.^.^.^. ^.^.^.^. ^.^.^.^.

"smile signals emptiness for me"


|Gm(BbGD)|D (F#DA)|D (F#DA)|Gm(GDBb)|Gm(GDBb)|Bb/D
|3--0----|--------|--------|----0---|--------|--------|
|------4-|(4)-----|0-0-----|--------|--------|0-------|
|--------|--------|--------|-------0|1---3---|--------|
|--------|--------|--------|3-------|--------|--------|
^.^.^.^. ^.^.^.^. ^.^.^.^. ^.^.^.^. ^.^.^.^. ^.^.^.^.

"Starless & Bible black."

|Bb/D |A/C |A/C |Bb/D |Bb/D |A/C
|--------|--------|--------|----7---|-----7--|----7---|
|----0--0|0----0--|0----0--|0-0-----|0-0-----|0-0-----|
|--------|--------|--------|--------|--------|--------|
|--------|--------|--------|--------|--------|--------|
^.^.^.^. ^.^.^.^. ^.^.^.^. ^.^.^.^. ^.^.^.^. ^.^.^.^.

|F#/A |G/Bb |
|----7---|--------|
|0-0----0|0-------|
|--------|--------|
|--------|--------|
^.^.^.^. ^.^.^.^.

{2}:[verse 3] add C
|Gm (GDBb) |Gm(BbGD)| (BbGC) |Gm (GDBb) |
|--------0---|--------|--------|----------------|
|------------|--------|----6---|--------5--/75-|
|------------|1-------|--------|----------------|
|3---3-------|--------|4-------|3---3-----------|
^ . ^ . ^.^. ^.^.^.^. ^.^.^.^. ^ . ^ . ^ . ^ .

"Ice blue, Silver sky"

D7 D7 add D
| (F#CA) | (F#CA) |Gm(GDBb)|Gm(GDBb)|Gm(BbGD)|Gm (BbGD)
|--------|--------|----0---|--------|--------|--------|
|4-------|0-------|--------|--------|--------|----0-1-|
|--------|----3-1-|--------|----0---|1-------|1-3-----|
|--------|--------|3-------|3-------|--------|--------|
^.^.^.^. ^.^.^.^. ^.^.^.^. ^.^.^.^. ^.^.^.^. ^.^.^.^.

"Fades in to grey. To a grey hope that"


|F (FCA) |D (AF#D)|Gm(BbGD)|Gm (GDBb) |Gm (BbGD)
/tri8 /tri8
|--------|--------|----0---|------0-3--0(0)-|3--0----|
|3-------|--------|--------|--0(0)---------0|------4-|
|--------|--------|--------|1---------------|--------|
|--------|1-----2-|3-------|----------------|--------|
^.^.^.^. ^.^.^.^. ^.^.^.^. ^ . ^.^.^ . ^.^.^.^.

"all yearns to be. Starless &"

add Eb
|D (F#DA)|D (F#DA)||
|--------|--------||13
|(4)-----|0-0-----||--
|--------|--------||4
|--------|--------||
^.^.^.^. ^.^.^.^.

"... Bible..."


Часть 2.


"... Black"

Бас:C(повторить 2 раза, пока не вступит гитара)
|----------------------------------------------------|
13|----------------------------------------------1-----|
--|3-------------------------------3-------------------|
4 |------------2-----------3---------2-----3-----------|
^ . ^ . ^ . ^ . ^ . ^ . ^ . ^ . ^ . ^ . ^ . ^ . ^ .

(do this 2x)
Гитара:
|3---3-3---3-3---3-3---3-3---3-3---3-3---3-3---3-----|
^ . ^ . ^ . ^ . ^ . ^ . ^ . ^ . ^ . ^ . ^ . ^ . ^ .
Бас:C
|----------------------------------------------------|
13|----------------------------------------------1-----|
--|3-------------------------------3-------------------|
4 |------------2-----------3---------2-----3-----------|

Гитара:
|2---2-2-2---2-2---2-2---2-2-----2-2---2-2---2-2-----|
^ . ^ . ^ . ^ . ^ . ^ . ^ . ^ . ^ . ^ . ^ . ^ . ^ .

Бас:F
|----------------------------------------------------|
13|3---------------------------------------------------|
--|----------------------------------------------11----|
4 |------------4-----------5-------6-7-----8-----------|

Гитара:
|2---2-2---2-2---2-2---2-2---2-2---2-2---2-2---2-----|
^ . ^ . ^ . ^ . ^ . ^ . ^ . ^ . ^ . ^ . ^ . ^ . ^ .

Бас:F
|----------------------------------------------------|
13|----------------------------------------------------|
--|8---------------------------------------------6-----|
4 |------------4-----------5-------6-7-----8-----------|

(повторить 2 раза)
Гитара:
|3---3-3---3-3---3-3---3-3---3-3---3-3---3-3---3-----|
^ . ^ . ^ . ^ . ^ . ^ . ^ . ^ . ^ . ^ . ^ . ^ . ^ .

Бас:C
|----------------------------------------------------|
13|----------------------------------------------1-----|
--|3-------------------------------3-------------------|
4 |------------2-----------3---------2-----3-----------|

Гитара:
|3---3-3-3---3-3---3-3---3-3---3-|
^ . ^ . ^ . ^ . ^ . ^ . ^ . ^ .

Бас:G
|0-------------------------------|
8|--------------------------------|
-|--------------------------------|
4|------------------------------3-|

Гитара:
|3-----3-----3-----3-----3-----3-|
^ . ^ . ^ . ^ . ^ . ^ . ^ . ^ .

Бас:G
|--------------------------------|
8|--------------------------------|
-|--------------------------------|
4|3---------------3-3-------------|

Гитара:
|(3)-3-----3-----3-----3-----3-3-|
^ . ^ . ^ . ^ . ^ . ^ . ^ . ^ .

Бас:G
|0-------------0-0-------------0-|
8|--------------------------------|
-|--------------------------------|
4|--------------------------------|

Гитара:
|3---3-3-3---3-3---3-3-------3---|
^ . ^ . ^ . ^ . ^ . ^ . ^ . ^ .

Бас:G
|--------------------------------|
8|--------------------------------|
-|------------------------1---2---|
4|3---------------3-3---3---------|

(Бас повторяет эту часть 3 раза)


13 |C(бас)
--E|3---3-3-3---3-3---3-3---3-3---3-3-3---3-3---3-3-----|
4 |^ . ^ . ^ . ^ . ^ . ^ . ^ . ^ . ^ . ^ . ^ . ^ . ^ .

13 |C(бас)
--E|3---3-3-3---3-3---3-3---3-3-----3-3---3-3---3-3-----|
4 |^ . ^ . ^ . ^ . ^ . ^ . ^ . ^ . ^ . ^ . ^ . ^ . ^ .

13 |C(бас)
--E|3---3-3---3-3---3-3---3-3---3-3---3-3---3-3---3-3---|
4 |^ . ^ . ^ . ^ . ^ . ^ . ^ . ^ . ^ . ^ . ^ . ^ . ^ .

13 |C(бас)
--E|3---3-3-3---3-3---3-3---3-3---3-3-3---3-3---3-3-----|
4 |^ . ^ . ^ . ^ . ^ . ^ . ^ . ^ . ^ . ^ . ^ . ^ . ^ .

13 |F(бас)
--E|5---5-5-5---5-5---5-5---5-5---5-5-5---5-5---5-5-----|
4 |^ . ^ . ^ . ^ . ^ . ^ . ^ . ^ . ^ . ^ . ^ . ^ . ^ .

(do 2x)
13 |C(бас)
--E|6---6-6-6---6-6---6-6---6-6---6-6-6---6-6---6-6-----|
4 |^ . ^ . ^ . ^ . ^ . ^ . ^ . ^ . ^ . ^ . ^ . ^ . ^ .

8 |G(бас)
-E|6---6-6-6---6-6---6-6---6-6---6-|
4 |^ . ^ . ^ . ^ . ^ . ^ . ^ . ^ .

8 |G(бас)
-E|6-6---6-6---6-6---6-6---6-6-----|
4 |^ . ^ . ^ . ^ . ^ . ^ . ^ . ^ .

8 |G(бас)
-E|7---7-7-7---7-7---7-7---7-7---7-|
4 |^ . ^ . ^ . ^ . ^ . ^ . ^ . ^ .

8 |G(бас)
-E|7-----7-----7-----7-----7-------|
4 |^ . ^ . ^ . ^ . ^ . ^ . ^ . ^ .

13 |C(бас)
--E|7---7-7-7---7-7---7-7---7-7---7-7-7---7-7---7-7-----|
4 |^ . ^ . ^ . ^ . ^ . ^ . ^ . ^ . ^ . ^ . ^ . ^ . ^ .

13 |C(бас)
--E|7---7-7-7---7-7---7-7---7-7-----7-7---7-7---7-7-----|
4 |^ . ^ . ^ . ^ . ^ . ^ . ^ . ^ . ^ . ^ . ^ . ^ . ^ .

13 |F(бас)
--E|8---8-8-8---8-8---8-8---8-8---8-8-8---8-8---8-8---8-|
4 |^ . ^ . ^ . ^ . ^ . ^ . ^ . ^ . ^ . ^ . ^ . ^ . ^ .

13 |F(бас)
--E|8---8-8---8-8---8-8---8-8---8-8---8-8---8-8---8-8---|
4 |^ . ^ . ^ . ^ . ^ . ^ . ^ . ^ . ^ . ^ . ^ . ^ . ^ .

13 |C(бас)
--E|8---8-8-8---8-8---8-8---8-8---8-8-8---8-8---8-8---8-|
4 |^ . ^ . ^ . ^ . ^ . ^ . ^ . ^ . ^ . ^ . ^ . ^ . ^ .

13 |C(бас)
--E|10--10-10-10--10-10--10-10--10-10--10-10-10--10-10--10-10-|
4 |^ . ^ . ^ . ^ . ^ . ^ . ^ . ^ . ^ . ^ . ^ . ^ .^.

8 |G(бас)
-E|10--10-10-10--10-10--10-10--10-10--10|
4 |^ . ^ . ^ . ^ . ^ . ^ . ^ . ^ .

8 |G(бас)
-E|11--11--11--11-11--11-11--11-11--11|
4 |^ . ^ . ^ . ^ . ^ . ^ . ^ . ^ .

8 |G(бас)
-E|13--13-13-13--13-13--13-13--13-13--13|
4 |^ . ^ . ^ . ^ . ^ . ^ . ^ . ^ .

8 |G(бас)
-E|14--14-14-14--14-14--14-14-14-14-14-14--|
4 |^ . ^ . ^ . ^ . ^ . ^ . ^ . ^ .

13 |C(бас)
--E|15-14/15-14/15-14/15-14/15-14/15-14/15-15-14/15-15-14/15-15-|
4 |^ . ^. ^ .^ . ^. ^ .^ . ^. ^ . ^ . ^ . ^ . ^ .

13 |C(бас)
--E|14--14-14-14--14-14--14-14--14-14--14-14-14--14-14--14-14-14|
4 |^ . ^ . ^ . ^ . ^ . ^ . ^ . ^ . ^ . ^ . ^ . ^ . ^.

13 |C(бас)
--E|15-14/15-14/15-14/15-14/15-14/15-14/15-15-14/15-15-14/15-15-|
4 |^ . ^. ^ .^ . ^. ^ .^ . ^. ^ . ^ . ^ . ^ . ^ .

Гитара:(ритм 8/4)
E|15-15-r-15-15-r-|6-6-r-6-6-r-|7-7-r-7-7-r-|
--
E|8-8-r-8-8-r-|3-3-r-3-3-r-|7-7-r-7-7-r-|8-8-r-8-8-r-|
--
E|9-9-r-9-9-r-|11-11-r-11-11-r-|12-12-r-12-12-r-|
--
E|14-14-r-14-14-r-|

Часть 3.

|Cm [3x]
13|----------------------------------|
--|------------1---------------------|
8 |3---1---33-3----3-3-3-1-----------|
|--------------------------3---3-2-|
^ . ^ . ^ . ^ . ^ . ^ . ^

|Cm [1x]
13|----------------------------------|
--|------------1-------------------1-|
8 |3---1---33-3----3-3-3-1---3---3---|
|----------------------------------|
^ . ^ . ^ . ^ . ^ . ^ . ^

|Fm [2x]
13|------------1---------------------|
--|3---1---33-3----3-3-3-1-----------|
8 |--------------------------3---3-1-|
|----------------------------------|
^ . ^ . ^ . ^ . ^ . ^ . ^

|Cm [1x]
13|----------------------------------|
--|------------1---------------------|
8 |3---1---33-3----3-3-3-1-----------|
|--------------------------3---3-2-|
^ . ^ . ^ . ^ . ^ . ^ . ^

|Cm [1x]
13|----------------------------------|
--|------------1-------------------1-|
8 |3---1---33-3----3-3-3-1---3---3---|
|----------------------------------|
^ . ^ . ^ . ^ . ^ . ^ . ^

|Gm |Gm |Gm |Gm
4|12-12---|10-8----|7--5--3-|-1--0-----|
-|--------|--------|--------|------1-0-|
4|--------|--------|--------|----------|
|--------|--------|--------|----------|
^.^.^.^. ^.^.^.^. ^.^.^.^. ^.^.^.^ .

|Cm[4x] |Fm |Fm
13|-------------||------------1|-------------|
--|------------1||3------------|3-----------1|
8 |3------------||------0-1-3--|------0-1-3--|
|---2--3-2-3--||---4---------|---4---------|
^.^.^.^.^.^.^ ^.^.^.^.^.^.^ ^.^.^.^.^.^.^

|Cm || ||Gm |Gm |Gm {**}|Gm
13|-------------||4||12-12---|10-8----|7--5--3-|-1--0----|
--|------------1||-||--------|--------|--------|------1-0|
8 |3------------||4||--------|--------|--------|---------|
|---2--3-2-3--|| ||--------|--------|--------|---------|
^.^.^.^.^.^.^ ^.^.^.^. ^.^.^.^. ^.^.^.^. ^.^.^.^ .

Дальше звучит что-то вроде этого:

|--------|10------|----11--|----|--------|11--10--|
|7-------|--------|-----11-|----|10------|--------|
4|--------|--------|--------|----|--------|--------|
-|--------|--------|--------|----|--------|--------|
4|--------|--------|--------|----|--------|--------|
|--------|--------|--------|----|--------|--------|
^.^.^.^. ^.^.^.^. ^.^.^.^. ^^^^ ^.^.^.^. ^.^.^.^.

|--------|--------|10------|10--13--|13----11-10-|
|11------|11--13--|--------|--------|------------|
4|--------|--------|--------|--------|------------|
-|--------|--------|--------|--------|------------|
4|--------|--------|--------|--------|------------|
|--------|--------|--------|--------|------------|
^.^.^.^. ^.^.^.^. ^.^.^.^. ^.^.^.^. ^.^.^.^ .

|8---10--|--------|--------|10----10--------|(10)----|
|--------|11------|(11)--r-|---11-----------|--------|
4|--------|--------|------e-|----------------|--------|
-|--------|--------|------s-|----------------|--------|
4|--------|--------|------t-|----------------|--------|
|--------|--------|--------|----------------|--------|
^.^.^.^. ^.^.^.^. ^.^.^.^. ^ . ^ . ^ . ^ . ^.^.^.^.

Часть 4.


|Gm (GDBb) |Cm (GEbC) |Cm (GEbC) |
|----------------|6---------------|(6)-5-6-5--3----|
|----------------|----------------|--------------4-|
|--------3--5--7-|----------------|----------------|
|----------------|----------------|----------------|
|----------------|----------------|----------------|
|----------------|----------------|----------------|
^ . ^ . ^ . ^ . ^ . ^ . ^ . ^ . ^ . ^ . ^ . ^ .

|--1-----0-------|--------5-------|----------------|
|-----------1--0-|----------------|----------------|
|----------------|3-------------3-|3-------------3-|
|----------------|----------------|----------------|

|D (AF#D) |D (AF#D) |Gm (BbGD)
|----------------|----------------|----------------|
|3---------------|(3)--------3--6-|----------------|
|----------------|--------3-------|2---3---2-------|
|----------------|----------------|----------------|
|----------------|----------------|----------------|
|----------------|----------------|----------------|
^ . ^ . ^ . ^ . ^ . ^ . ^ . ^ . ^ . ^ . ^ . ^ .

|--------7-------|----------------|--------0-------|
|0-------------0-|0---------------|----------------|
|----------------|----------------|----------------|
|----------------|----------------|3-------------3-|

|Gm(BbGD) add F |Cm (GEbC) |Cm (GEbC) |
|----------------|6---------------|(6)-5-6-5--3----|
|----------------|----------------|--------------4-|
|(2)-----3--5--7-|----------------|----------------|
|----------------|----------------|----------------|
|----------------|----------------|----------------|
|----------------|----------------|----------------|
^ . ^ . ^ . ^ . ^ . ^ . ^ . ^ . ^ . ^ . ^ . ^ .

|----------------|----------------|----------------|
|----------------|----------------|----------------|
|----------------|6---6-6-6---5---|3-----3-3--3--4-|
|3-3-3-3-3--3--3-|----------------|----------------|

|Dm (FDA) |Dm (FDA) |Gm (DBbG)
|----------------|----------------|---------------|
|3---------------|(3)-----6---3---|---------------|
|----------------|----3-----------|2--------------|
|----------------|----------------|---------------|
|----------------|----------------|---------------|
|----------------|----------------|---------------|
^ . ^ . ^ . ^ . ^ . ^ . ^ . ^ . ^ . ^ . ^ . ^ .

|----------------|----------------|-------0-----0-|
|0-----0-0-------|0-0-0-0-0-----0-|---------------|
|----------------|----------------|---------------|
|----------------|----------------|3----3---------|

|Gm (DBbG) |Bb/D |Bb/D
|----------------|--------7-----7-|----------------|
|----------------|0-----0---------|0-----0-0-0-0-0-|
|------0-1-0-1-3-|----------------|----------------|
|3-2-3-----------|----------------|----------------|
^ . ^ . ^ . ^ . ^ . ^ . ^ . ^ . ^ . ^ . ^ . ^ .

|A/C |A/C |Bb/D
|--------7-----7-|----------------|--------7-----7-|
|0-----0---------|0-----0-0-0-0-0-|0---0-0---------|
|----------------|----------------|----------------|
|----------------|----------------|----------------|
^ . ^ . ^ . ^ . ^ . ^ . ^ . ^ . ^ . ^ . ^ . ^ .

|Bb/D |A/C |F#/A
|----------------|----------------|----------------|
|0-----0-0-0-0-0-|0---0-0-0-------|0-----0-0-------|
|----------------|----------------|----------------|
|----------------|----------------|----------------|
^ . ^ . ^ . ^ . ^ . ^ . ^ . ^ . ^ . ^ . ^ . ^ .

|Gm (GDBb)
|--------0-----0-|
|----------------|
|----------------|
|3-----3---------|
^ . ^ . ^ . ^ .

|Gm(GDBb) add F |Cm (GEbC) |Cm (GEbC) |
|----------------|6---------------|(6)-5-6-5--3----|
|----------------|----------------|--------------4-|
|(2)-----3--5--7-|----------------|----------------|
|----------------|----------------|----------------|
|----------------|----------------|----------------|
|----------------|----------------|----------------|
^ . ^ . ^ . ^ . ^ . ^ . ^ . ^ . ^ . ^ . ^ . ^ .

|0---------------|----------------|----------------|
|----------------|----------------|----------------|
|--------8-------|6---6-6-6-6-5---|3-----3-3--3--4-|
|----------------|----------------|----------------|

|Dm (FDA) |Dm (FDA) |Gm (DBbG)
|----------------|----------------|----------------|
|3---------------|(3)--------3--6-|----------------|
|----------------|--------3-------|2---------------|
|----------------|----------------|----------------|
|----------------|----------------|----------------|
|----------------|----------------|----------------|
^ . ^ . ^ . ^ . ^ . ^ . ^ . ^ . ^ . ^ . ^ . ^ .

Финал:

|----------------|----------------|----------------|
|0---0-0-0---0-0-|0---0-0-0-------|----------------|
|----------------|-----------1--0-|----------------|
|----------------|----------------|3---------------|
Добавить новый гитарный бой
Дата: 9-09-2016, 17:38, Добавил: Aurondel, Раздел: Иностранные
Информация
Посетители, находящиеся в группе Гости, не могут оставлять комментарии к данной публикации.



Популярные песни
  • Титаник
  • Пираты карибского моря
  • Нежный голос тишины
  • Ламбада
  • Все бабы суки бабы бляди
  • Там на суку
  • Фактор 2 - Шалава
  • Над старым аулом
  • Песни к 8 марта: Необыкновенная
  • Константин Куклин - Асфадель


  • Облако тегов
    , 8 марта, Ария, Армия, би-2, блядь, Валерий Скутин, Война, Грусть, Дворовые, ддт, Звери, Измена, Иностранные, интересное, Кино, КиШ, Красиво, Кузя, лагерное, лагерь, Лирика, Любовь, Любэ, ляпис трубецкой, Многоточие, Наутилус Помпилиус, о жизни, песни, песня, под гитару, Приколы, Разное, Расставание, Сектор газа, Слезы, Сплин, У костра, Чиж и Ко, Школа

    Показать все теги