Войти
Навигация

Мини-чат
Написалzhelinscky
23 октября 2016
привет всем заходите на портал гитаристов akkordmovi.com
Написалzhelinscky
23 октября 2016
всем привет заходите на новый портал гитаристов [leech=http://akkordmovi.com]akko
rdmovi.com[/leech]
НаписалВексель
7 августа 2016
Всем привет
НаписалAragorn
4 апреля 2016
привет
НаписалVurf
1 марта 2016
шалом, бездельники!)
НаписалHohner
8 февраля 2016
https://www.youtube.com/watch?v=9
wG5oHsYkvA
НаписалHohner
8 февраля 2016
smile-03
Написалslaveckii77
24 января 2016
slaveckii77, Я тут))))
Написалslaveckii77
24 января 2016
Где все ??? ЭЭЭ народ?
Написалslaveckii77
24 января 2016
Где все ??? ЭЭЭ народ?

Только зарегистрированные пользователи могут отправлять сообщения.

Наша группа

0-9  A-Z  А  Б  В  Г  Д  Е  Ж  З  И  К  Л  М  Н  О  П  Р  С  Т  У  Ф  Х  Ц  Ч  Ш  Щ  Ю  Я 

Аккорды к песне Албениз Исаак - "Испанская сюита" - №5 Астурия (2 вариант)

Просмотров: 1309, Комментариев: 0
 (голосов: 1)




Транспонировать:
Ноты везде - 1/16, кроме 17, там - целые .

тональность: G
размер: 3/4
темп: moderato (~ 92 четверти в минуту)
строй: стандартный (1-6 = E B G D A E )

E |-------------------------|--------------------------|
B |--0---0----0---0---0----0|---0---0----0---0---0----0|
G |-------------------------|--------------------------|
D |----9---10---7---9-------|-----9---10---7---9-------|
A |7--------------------10--|-7--------------------10--|
E |-------------------------|--------------------------|
1 2

E |---------------------------|-------------------------|
B |---0---0----0---0---0----0-|--0---0----0---0---0----0|
G |---------------------------|-------------------------|
D |-----9---10---7---9--------|7------------7-----------|
A |-7--------------------10---|----9---10-------9---10--|
E |---------------------------|-------------------------|
3 4

E |--------------------------|---------------------------|
B |---0---0----0---0---0----0|---0---0----0---0---0----0-|
G |--------------------------|---------------------------|
D |-----9---10---7---9-------|-----9---10---7---9--------|
A |-7--------------------10--|-7--------------------10---|
E |--------------------------|---------------------------|
5 6

E |-------------------------|--------------------------|
B |--0---0----0---0---0----0|---0---0----0---0----0---0|
G |-------------------------|--------------------------|
D |----9---10---7---9-------|-7------------------------|
A |7--------------------10--|-----9---10---7-----------|
E |-------------------------|------------------10---8--|
7 8

E |--------------------------|-------------------------|
B |---0---0----0---0---0---0-|--0---0----0---0---0---0-|
G |--------------------------|-------------------------|
D |-----9---10---7---9-------|----9---10---7---9-------|
A |----------------------9---|---------------------9---|
E |-7------------------------|7------------------------|
9 10

E |--------------------------|--------------------------|
B |---0---0---0---0----0---0-|---0----0---0---0---0---0-|
G |----------------------7---|--------------------------|
D |-------------9---10-------|-9---10---7---9-----------|
A |-----9---7----------------|------------------10--9---|
E |-7------------------------|--------------------------|
11 12

E |-------------------------|--------------------------|
B |--0---0----0---0---0---0-|---0---0----0---0---0---0-|
G |-------------------------|--------------------------|
D |----9---10---7---9-------|-----9---10---7---9-------|
A |---------------------9---|----------------------9---|
E |7------------------------|-7------------------------|
13 14

E |---------------------------|
B |---0---0----0----0---0---0-|
G |-------------------7-------|
D |-----7----9---10-------9---|
A |---------------------------|
E |-7-------------------------|
15

/ ⁄
E |-------------------------|--------->---0-|
B |--0---0---0----0---0---0-|-----------0-|
D |10--7---9--------7-------|-----------7-|
E |-------------------------|--------
Добавить новый гитарный бой
Дата: 21-12-2013, 19:54, Добавил: Aurondel, Раздел: Албениз Исаак
Информация
Посетители, находящиеся в группе Гости, не могут оставлять комментарии к данной публикации.



Популярные песни
  • Титаник
  • Пираты карибского моря
  • Все бабы суки бабы бляди
  • Над старым аулом
  • Ламбада
  • Солдат (из к/ф Мы из будущего)
  • Мальчишка-наркоман
  • За Родину
  • Девочка не надо слезы лить напрасно
  • Орленок - Звезды


  • Облако тегов
    , 8 марта, Ария, Армия, би-2, блядь, Война, гитара, Грусть, Дворовые, ддт, Звери, Измена, Иностранные, интересное, Кино, КиШ, Красиво, Кузя, лагерное, лагерные песни, лагерь, Лирика, Любовь, Любэ, Многоточие, Море, Наутилус Помпилиус, о жизни, песня, под гитару, Приколы, Разное, Расставание, Сектор газа, Слезы, Сплин, У костра, Чиж и Ко, Школа

    Показать все теги