Войти
Навигация

Мини-чат
Написалzhelinscky
6 января 2017
привет всем http://akkordmovi.com/
архив аккордов кручее намного
НаписалВексель
7 августа 2016
Всем привет
НаписалAragorn
4 апреля 2016
привет
НаписалVurf
1 марта 2016
шалом, бездельники!)
НаписалHohner
8 февраля 2016
https://www.youtube.com/watch?v=9
wG5oHsYkvA
НаписалHohner
8 февраля 2016
smile-03
Написалslaveckii77
24 января 2016
slaveckii77, Я тут))))
Написалslaveckii77
24 января 2016
Где все ??? ЭЭЭ народ?
Написалslaveckii77
24 января 2016
Где все ??? ЭЭЭ народ?
Написалslaveckii77
14 января 2016
Привет народ)

Только зарегистрированные пользователи могут отправлять сообщения.

Наша группа

0-9  A-Z  А  Б  В  Г  Д  Е  Ж  З  И  К  Л  М  Н  О  П  Р  С  Т  У  Ф  Х  Ц  Ч  Ш  Щ  Ю  Я 

Аккорды к песне Алиса - Черная метка (2 вариант)

Просмотров: 770, Комментариев: 2
 (голосов: 0)




Транспонировать:
A7 D
E |---------------|---2-----3-2---------|
B |-------2-3-2---|-----3---------------|
G |-----0-------0-|-------2-----0-------|
D |---2-----------|-0-------------------|
A |-0-------------|----------------0h2p-|
E |---------------|---------------------|

A7 D
E |---------------------|---2-----3-2---------------------|
B |-------2-3-2---------|-----3---------------------------|
G |-----0-------0-------|-------2-----0-------------------|
D |---2------------0h2p-|-0-------------0h2p0-------------|
A |-0-------------------|------------------------0h2p0----|
E |---------------------|---------------------------------|

A7 D
E |--------------------|---2-----3-2---|
B |-------2-3-2--------|-----3---------|
G |-----0-------0------|-------2-----0-|
D |---2----------------|-0-------------|
A |-0------------------|---------------|
E |--------------------|---------------|
Чуткий час времени "Ч", звезд парча на моем плече.
В чарах порчи лечу в луче. Моя черная метка,
A5
метка...

/ I A7 D
| E |--------------------|---2-------3--2-----------------------|
| B |--------2-3--2------|-----3--------------------------------|
| G |-----0---------0----|-------2---------0--------------------|
| D |---2----------------|-0------------------------------------|
| A |-0------------------|--------------------------------------|
| E |--------------------|--------------------------------------|
|
| I
| E |--------------------|--------------------------------------|
| B |--------------------|--------------------------------------|
| G |--------------------|--------------------------------------|
| D |--------------------|-----0h4p0-5-5-4-2--------------------|
| A |-----0h4p0-5-4-0-0--|-------------------5-0-3-0-2-0--------|
| E |--------------------|--------------------------------------|


/ I A7 D
| E |-------------------------------|---2-----3-2---------------|
| B |--------2-3--2-----------------|-----3---------------------|
| G |-----0---------0---------------|-------2-----0-------------|
| D |---2---------------------------|-0-------------------------|
| A |-0-----------------------------|---------------------------|
| E |-------------------------------|---------------------------|
|
| II
| E |-------------------------------|---------------------------|
| B |-------------------------------|-----------------------7---|
| G |-------------------------------|---------------------7-----|
| D |-------------------------------|-----------------7-7-------|
| A |-----0h4p0-5-4-0-4-0-4-4-5-4-0-|-------------5-7-----------|
| E |-------------------------------|---------------------------|


/ I A7 D
| E |-----------------------|---2-----3-2---|
| B |-------2-3-2-----------|-----3---------|
| G |-----0-------0---------|-------2-----0-|
| D |---2-------------------|-0-------------|
| A |-0---------------------|---------------|
| E |-----------------------|---------------|
|
| II
| E |-----------------------|----------------------------------|
| B |-----------------------|----------------------------------|
| G |-----------------------|----------------------------------|
| D |-----------------------|-------------0h2p0----------------|
| A |------------/5p0-5p4p0-|-------------------4-3-0----------|
| E |-----------------------|----------------------------------|

Звездам ночь, свет отцу, пыль дорог моему лицу.


/ I A7 D
| E |-----------------------|---2-----3-2---|
| B |-------2-3-2-----------|-----3---------|
| G |-----0-------0---------|-------2-----0-|
| D |---2-------------------|-0-------------|
| A |-0---------------------|---------------|
| E |-----------------------|---------------|
|
| II
| E |-----------------------|---------------|
| B |-----------------------|---------------|
| G |-----------------------|---------------|
| D |-----------------------|---------------|
| A |--------------4/5p4----|---------------|
| E |-----------------------|---------------|

До конца танцевать к концу. Моя черная метка,
A5
Метка.
G5 A5 D5
Моя черная метка - ROCK!
A5
Если ты знаешь как жить,
G5 D5
Рискни ответить мне -
A5 G5 G#5 A5 G5G#5A5G5G#5A5 C5A5
Кто мог бы стать твоим проводником в небо?

A5 D5 A5 D5 A5 D5 C5
E |--------------------|-----------|-------------------|-------|
B |--------------------|-----------|-------------------|-------|
G |------7-5---5-------|-----------|-----7-5---5-------|-------|
D |--7-7-7---7---7-5---|-----7-----|-7-7-7---7---7-5---|-------|
A |--7-7-------------7-|-7-7-5---5-|-7-7-------------7-|-3-3-3-|
E |--5-5---------------|-5-5---5---|-5-5---------------|-------|

2X
E |------------------|--------------------|
B |------------------|--------------------|
G |------------------|--------------------|
D |---7---7---7--7/8-|---7---7---7--7/8⁄7-|
A |---7---7---7--7/8-|---7---7---7--7/8⁄7-|
E |-5-5-5-5-5-5--5/6-|-5-5-5-5-5-5--5/6⁄5-|

E |------------------|--------------------|
B |------------------|--------------------|
G |------------------|--------------------|
D |---7---7---7--7/8-|---7---7---7--7/8⁄7-|
A |---7---7---7--7/8-|---7---7---7--7/8⁄7-|
E |-5-5-5-5-5-5--5/6-|-5-5-5-5-5-5--5/6⁄5-|
Я сволочь весны, я осени шлак

E |------------------------------|
B |------------------------------|
G |------------------------------|
D |---7---7---7---7----8-------7-|
A |---7---7---7---7----8-------7-|
E |-5-5-5-5-5-5-5-5----6-------5-|
Я тебе не друг и не враг, а так
C5 H5 B5 A5
Мою кровь сосет придорожный мак.

E |---------------------------------|
B |---------------------------------|
G |---------------------------------|
D |-7-8-7-5-7-8-7-5-7-8-7-5-7-8-7-5-|
A |---------------------------------|
E |---------------------------------|
Моя черная метка, черная метка.
Добавить новый гитарный бой
Дата: 2-04-2013, 11:06, Добавил: Aurondel, Раздел: Алиса
Комментарий №1
MarinaPr 9 декабря 2014 00:36 Группа: Гости
Вентилятор охлаждения радиатора двигателя VW T5 MULTIVAN VW Transporter T5 VW MULTIVAN CARAVELLA 1.9тди 2.5 тди 2004-2010г.в

Наша авторазборка: Вы можете купить запчасти из германии в наличии и под заказ: Volkswagen Caddy, VW T5,Touran, VW Golf 5, VW Passat, Skoda Octavia.
Условия доставки: действует система скидок для постоянных клиентов! Доставка в любой город Украины. Оплата при получении товара. Тажке есть склады в  Киеве и Полтаве.

Контактный телефон:
+38 (096) 525-3377
+38 (095) 423-89-59
+38 (093) 053-5034
Комментарий №2
Sash78Pr 9 декабря 2014 01:49 Группа: Гости
Вентилятор радиатора кондиционера Volkswagen Transporter T5 1.9tdi 2.5тди MultivanТовар также подходит: VW T5

Наша авторазборка: Вы можете купить запчасти из германии в наличии и под заказ: Volkswagen Caddy, VW T5,Touran, VW Golf 5, VW Passat, Skoda Octavia.
Условия доставки: действует система скидок для постоянных клиентов! Доставка в любой город Украины. Оплата при получении товара. Тажке есть склады в  Киеве и Полтаве.
тел +38 (096) 525-3377 +38 (095) 423-89-59 +38 (093) 053-5034
Информация
Посетители, находящиеся в группе Гости, не могут оставлять комментарии к данной публикации.



Популярные песни
  • Титаник
  • Пираты карибского моря
  • Все бабы суки бабы бляди
  • Над старым аулом
  • Ламбада
  • Солдат (из к/ф Мы из будущего)
  • За Родину
  • Мальчишка-наркоман
  • Девочка не надо слезы лить напрасно
  • Орленок - Звезды


  • Облако тегов
    , 8 марта, Noize MC, Агата Кристи, Ария, Армия, би-2, блядь, Война, Грусть, Дворовые, ддт, Звери, Измена, Иностранные, интересное, Кино, КиШ, Красиво, Кузя, лагерное, лагерь, Лирика, Любовь, Любэ, Мельница, Многоточие, Наутилус Помпилиус, о жизни, песня, под гитару, Приколы, Разное, Расставание, Сектор газа, Слезы, Сплин, У костра, Чиж и Ко, Школа

    Показать все теги