Войти
Навигация

Мини-чат
Написалzhelinscky
23 октября 2016
привет всем заходите на портал гитаристов akkordmovi.com
Написалzhelinscky
23 октября 2016
всем привет заходите на новый портал гитаристов [leech=http://akkordmovi.com]akko
rdmovi.com[/leech]
НаписалВексель
7 августа 2016
Всем привет
НаписалAragorn
4 апреля 2016
привет
НаписалVurf
1 марта 2016
шалом, бездельники!)
НаписалHohner
8 февраля 2016
https://www.youtube.com/watch?v=9
wG5oHsYkvA
НаписалHohner
8 февраля 2016
smile-03
Написалslaveckii77
24 января 2016
slaveckii77, Я тут))))
Написалslaveckii77
24 января 2016
Где все ??? ЭЭЭ народ?
Написалslaveckii77
24 января 2016
Где все ??? ЭЭЭ народ?

Только зарегистрированные пользователи могут отправлять сообщения.

Наша группа

0-9  A-Z  А  Б  В  Г  Д  Е  Ж  З  И  К  Л  М  Н  О  П  Р  С  Т  У  Ф  Х  Ц  Ч  Ш  Щ  Ю  Я 

Аккорды к песне Алиса - Печать зверя (2 вариант)

Просмотров: 756, Комментариев: 0
 (голосов: 0)




Транспонировать:
Riff 1:
E |---------------------------------|
B |---------------------------------|
G |------4-3---3-4-------4-3---0----|
D |--2---2-2---2-2---2---2-2---0-2--|
A |--2---------------2-----------2--|
E |--0---------------0--------------|

Riff 1.
Печать зверя - клеймо стада
Девиз бойни: "Всегда рады"

Козлов кодлы пасет воля
Шагать стороем - слепых доля
По чью душу рычит свора
Закон труса - служить вору

Riff 2:
E |---------------------------------|
B |---------------------------------|
G |---------------------------------|
D |---------------------------------|
A |---------------------------------|
E |--0---7---5-7-5-3---5---3-5-3----|

Блажит левый, ревет правый:
Виват, Мао, Адольф, браво!
К концу бреда, верней корчи,
Жутки песни мои к ночи

Припев:
C Am D G
Как над миром - заря, неба ясная дочь
C Am Riff 3.
Успокоит меня лишь только кончится ночь
C Am D G -
Надо мной и тобой ветры пенят восход
C Am Riff 1.
Не тревожься, не плачь - вот-вот и солнце взойдет.

Riff 3:
E |---------------|
B |---------------|
G |---------------|
D |-------0-------|
A |---0h2---1--2~-|
E |-0-------------|

О ночь в силе, как пресс зоны
Прикол гимна душить стоны
Мораль бойни: "Убей, веря!"
Иконам слезы, клеймить зверя!

Припев.

E |---------------------------------|
B |---------------------------------|
G |-----4-3-------------------------|
D |---2-------------5-5-5-5-7-7-7-7-|
A |-----------2-5-4-5-5-5-5-7-7-7-7-|
E |-0-------0-------3-3-3-3-5-5-5-5-|

A . Н . A . Н .
E |-------------------------------------------------------------|
B |-------------------------------------------------------------|
G |-4-5-4-5-4-5-2-----------------4-5-4-5-4-5-2-----------------|
D |-4-5-4-5-4-5-2-4----"4"--------4-5-4-5-4-5-2-5----"5"--------|
A |-2-3-2-3-2-3-0-4-----4-5-4-3-2-2-3-2-3-2-3-0-5-----5-5-4-3-2-|
E |---------------2-2-2-2-3-2-1-0---------------3-3-3-3-3-2-1-0-|

Riff 1.
Печать зверя - клеймо стада
Девиз бойни: "Всегда рады".
Добавить новый гитарный бой
Дата: 17-03-2013, 15:22, Добавил: Aurondel, Раздел: Алиса
Информация
Посетители, находящиеся в группе Гости, не могут оставлять комментарии к данной публикации.



Популярные песни
  • Титаник
  • Пираты карибского моря
  • Все бабы суки бабы бляди
  • Над старым аулом
  • Ламбада
  • Солдат (из к/ф Мы из будущего)
  • Мальчишка-наркоман
  • За Родину
  • Девочка не надо слезы лить напрасно
  • Орленок - Звезды


  • Облако тегов
    , 8 марта, Ария, Армия, би-2, блядь, Валерий Скутин, Война, Грусть, Дворовые, ддт, Звери, Измена, Иностранные, интересное, Кино, КиШ, Красиво, Кузя, лагерное, лагерные песни, лагерь, Лирика, Любовь, Любэ, ляпис трубецкой, Многоточие, Наутилус Помпилиус, о жизни, песня, под гитару, Приколы, Разное, Расставание, Сектор газа, Слезы, Сплин, У костра, Чиж и Ко, Школа

    Показать все теги