Войти
Навигация

Наша группа

0-9  A-Z  А  Б  В  Г  Д  Е  Ж  З  И  К  Л  М  Н  О  П  Р  С  Т  У  Ф  Х  Ц  Ч  Ш  Щ  Ю  Я 

Аккорды к песне Iggy Pop - Lust For Life

Просмотров: 240, Комментариев: 0
 (голосов: 0)




Транспонировать:
Intro
G |------------------------------------------------------|
D |------------------------------------------5/7-5---5-7-|
A |------------------------------------------------7-----|
E |5-5-5-5-5-5-5-2/33/44/5-5-5-5-5-5-5-5-5-5-------------|

Riff 1
G |----------------|
D |----------------|
A |----------------|
E |5-5-5-5-55-0-5-0|

Riff 2 Riff 2* (Variation)
G |---------------|-----------------|
D |---------------|---7/9-------7/99|
A |7-7-7-77---7---|77-----7-7-------|
E |---------7---7-|-----------------|

Riff 3
G |----------------------|
D |----------------------|
A |10-10-10-1010----10---|
E |--------------10----10|

Riff 4
G |--------------|
D |--------------|
A |5-5-5-55---5--|
E |---------5---5|

The song goes like this:

Intro Riff 1 Riff 2 Riff 1 Riff 2 Riff 3 Riff 4 Riff 2 Riff 1
G |------|------|------|------|-----|------|------|------|------|------|------|
D |------|------|------|------|-----|------|------|------|------|------|------|
A |------|------|------|------|4-5-6|------|------|10-9-7|------|------|------|
E |------|------|------|------|-----|------|------|------|------|------|------|

Riff 2 Riff 1 Riff 2 Riff 2 Riff 3
G |------|-------|------|-----|------|------|------|-----|------|------|
D |------|-------|------|-----|------|------|------|-----|------|------|
A |------|/14-14-|------|4-5-6|------|/14-14|------|7-8-9|------|10-9-7|
E |------|-------|------|-----|------|------|------|-----|------|------|

Riff 4 Riff 2 Wait a while Riff 1 Riff 2 Riff 1 Riff 2
G |------|------|--------------|------|-----|------|-----|------|------|
D |------|------|--------------|------|-----|------|-----|------|------|
A |------|------|--------------|------|4-5-6|------|-----|------|------|
E |------|------|--------------|------|-----|------|9-8-7|------|------|

Riff 2 Riff 3 Riff 4 Riff 2 Riff 1 Riff 2
G |------|------|-----|------|------|------|------|------|------|
D |------|------|-----|------|------|------|------|------|------|
A |/14-14|------|7-8-9|------|10-9-7|------|------|------|------|
E |------|------|-----|------|------|------|------|------|------|

Riff 1 Riff 2 Riff 3 Riff 4
G |--------------------|------|--------|------|-----|------|------|------|
D |--------------------|------|--------|------|-----|------|------|------|
A |/14-14-11-11-9-9-7--|------|44-55-66|------|7-8-9|------|10-9-7|------|
E |-------------------5|------|--------|------|-----|------|------|------|

Riff 2* Riff 1 Riff 2 Riff 1 Riff 2 Riff 3
G |-------|------|------|-----|------|-----|------|-----|------|-------|
D |-------|------|------|-----|------|-----|------|-----|------|/12-9-7|
A |-------|------|------|-----|------|4-5-6|------|7-8-9|------|-------|
E |-------|------|------|9-8-7|------|-----|------|-----|------|-------|

Riff 4 Riff 2* Riff 1 Riff 1 Riff 2*
G |------|-------|-------|------|-----------|------|-----------|-------|
D |------|--7-7/9|-------|------|5/7-5---5-7|------|5/7-5---5-7|-------|
A |------|5------|-------|------|------7----|------|------7----|-------|
E |------|-------|-------|------|-----------|------|-----------|-------|

Riff 2 Riff 2* Riff 1 To Fade
G |------|------|-------|------|
D |------|------|-------|------|
A |------|/14-14|-------|------|
E |------|------|-------|------|
Добавить новый гитарный бой
Дата: 22-09-2016, 23:35, Добавил: Aurondel, Раздел: Иностранные
Информация
Посетители, находящиеся в группе Гости, не могут оставлять комментарии к данной публикации.



Популярные песни
  • Титаник
  • Пираты карибского моря
  • Все бабы суки бабы бляди
  • Над старым аулом
  • Ламбада
  • Солдат (из к/ф Мы из будущего)
  • Мальчишка-наркоман
  • За Родину
  • Орленок - Звезды
  • Девочка не надо слезы лить напрасно


  • Облако тегов
    , 8 марта, Ария, Армия, би-2, блядь, Валерий Скутин, Война, Грусть, Дворовые, ддт, Звери, Измена, Иностранные, интересное, Кино, КиШ, Красиво, Кузя, лагерное, лагерь, Лирика, Любовь, Любэ, ляпис трубецкой, Многоточие, Наутилус Помпилиус, о жизни, песни, песня, под гитару, Приколы, Разное, Расставание, Сектор газа, Слезы, Сплин, У костра, Чиж и Ко, Школа

    Показать все теги