Войти
Навигация

Мини-чат
Написалzhelinscky
23 октября 2016
привет всем заходите на портал гитаристов akkordmovi.com
Написалzhelinscky
23 октября 2016
всем привет заходите на новый портал гитаристов [leech=http://akkordmovi.com]akko
rdmovi.com[/leech]
НаписалВексель
7 августа 2016
Всем привет
НаписалAragorn
4 апреля 2016
привет
НаписалVurf
1 марта 2016
шалом, бездельники!)
НаписалHohner
8 февраля 2016
https://www.youtube.com/watch?v=9
wG5oHsYkvA
НаписалHohner
8 февраля 2016
smile-03
Написалslaveckii77
24 января 2016
slaveckii77, Я тут))))
Написалslaveckii77
24 января 2016
Где все ??? ЭЭЭ народ?
Написалslaveckii77
24 января 2016
Где все ??? ЭЭЭ народ?

Только зарегистрированные пользователи могут отправлять сообщения.

Наша группа

0-9  A-Z  А  Б  В  Г  Д  Е  Ж  З  И  К  Л  М  Н  О  П  Р  С  Т  У  Ф  Х  Ц  Ч  Ш  Щ  Ю  Я 

Аккорды к песне Bryan Adams - Summer Of "69" (2 вариант)

Просмотров: 618, Комментариев: 0
 (голосов: 0)




Транспонировать:
Intro verse

E |----------------|----------------------------|
B |---3-3----------|3-3-------------------------|
G |---2-2-22222222-|2-2-222222222--2-2----------|
D |---000-00000000-|000-000000000--2-2-22222222-| (x4)
A |----------------|---------------000-00000000-|
E |----------------|----------------------------|
* ******** * ********* * ********

Chorus (strum pattern not included)

Bm A D G (LET THESE CHORDS RING)
E |---2-----0---2--3---------2---0-|
B |---3-----2---3--3---------3---2-|
G |---4-----2---2--0--(x2)---4---2-|
D |---4-----2---0--0---------4---2-|
A |---2-----0------2---------2---0-|
E |----------------3---------------|

COOL RIFF afer "those were the best days of my life"

E |--0-2-3-2-0-2---------------| (play this after every chorus)
B |---3-3-3-3-----0-2-3-2-0-2--|
G |----------------2-2-2-2-----|
D |----------------------------|
A |----------------------------|
E |----------------------------|

Bridge(strum pattern not shown)
"we were killing time"

F Bb C Bb F Bb C (hold twice as long)
E |--1---1--3--1--1--1--3-|
B |--1---3--5--3--1--3--5-|
G |--2---3--5--3--2--3--5-|
D |--3---3--5--3--3--3--5-|
A |--3---1--3--1--3--1--3-|
E |--1------------1-------|

cool little solo deal.

E |--12-12--14-14--15-15--14-14--12-14-----------------------------------|
B |------------------------------------12-12--14-14--15-15--14-14--12-14-| (x5)
G |----------------------------------------------------------------------|
D |----------------------------------------------------------------------|
A |----------------------------------------------------------------------|
E |----------------------------------------------------------------------|

Outro(played over chords)(fades out as song ends)

E |----------------14~~~~-----------------------|
B |------------------------------------------12-|
G |-7~--9/11-9-11b12r11~---14-14h16p14h16p14----|
D |---------------------------------------------|
A |---------------------------------------------|
E |---------------------------------------------|

E |-------12/14-12~-14b15r14~-14-12h14p12-|
B |-14-15~--------------------------------|
G |---------------------------------------|
D |---------------------------------------|
A |---------------------------------------|
E |---------------------------------------|

order

intro
verse
chrous
COOL RIFF
verse
Chorus
COOL RIFF
Bridge
Solo deal
Chorus
Outro
Добавить новый гитарный бой
Дата: 12-02-2014, 14:17, Добавил: Aurondel, Раздел: Иностранные
Информация
Посетители, находящиеся в группе Гости, не могут оставлять комментарии к данной публикации.



Популярные песни
  • Титаник
  • Пираты карибского моря
  • Все бабы суки бабы бляди
  • Над старым аулом
  • Ламбада
  • Солдат (из к/ф Мы из будущего)
  • Мальчишка-наркоман
  • За Родину
  • Девочка не надо слезы лить напрасно
  • Орленок - Звезды


  • Облако тегов
    , 8 марта, Ария, Армия, би-2, блядь, Валерий Скутин, Война, Грусть, Дворовые, ддт, Звери, Измена, Иностранные, интересное, Кино, КиШ, Красиво, Кузя, лагерное, лагерные песни, лагерь, Лирика, Любовь, Любэ, ляпис трубецкой, Многоточие, Наутилус Помпилиус, о жизни, песня, под гитару, Приколы, Разное, Расставание, Сектор газа, Слезы, Сплин, У костра, Чиж и Ко, Школа

    Показать все теги