Войти
Навигация

Мини-чат
Написал-LioNesS-
Хотелось бы узнать на 8 марта есть норм песни??
Написал-LioNesS-
Привет
НаписалВексель
Всем привет
НаписалAragorn
привет
НаписалVurf
шалом, бездельники!)
НаписалHohner
https://www.youtube.com/watch?v=9
wG5oHsYkvA
Написалslaveckii77
slaveckii77, Я тут))))
Написалslaveckii77
Где все ??? ЭЭЭ народ?

Только зарегистрированные пользователи могут отправлять сообщения.

Наша группа

0-9  A-Z  А  Б  В  Г  Д  Е  Ж  З  И  К  Л  М  Н  О  П  Р  С  Т  У  Ф  Х  Ц  Ч  Ш  Щ  Ю  Я 

Аккорды к песне AC/DC - Money Talks

Просмотров: 1018, Комментариев: 0
 (голосов: 1)




Транспонировать:
fig 1a Guitar 1 ( G Gsus2 G Gsus2 Csus2 )

| E ------------------|--------------|---------------|---------------|
| B --3---3--3-3--1---|--1-1-1--1--1-|-3-3--3-3--1---|-1-1----1----1-|
| G --4---2--4-2--0---|--4-2-0--2--0-|-4-2--4-2--0---|-4-2--0-0-2--0-|
| D --0---0--0-0--0---|--------------|-0-0--0-0--0---|---------------|
| A --------------3---|--------------|-----------3---|---------------|
| E --3---3--3-3------|--------------|-3-3--3-3------|---------------|

fig 1b GTR.2 |
| E --7---5--7-5--8---|--7-5----5----|-7-5--7-5--8---|-7-x----x-x--x-|
| B --8---8--8-8--8------8-8-8--8--8---8-8--8-8--8---|-8-10⁄8-8-10-8-|
| G --7---7--7-7--9------5---7-----7---7-7--7-7--9---|-7-7----7-7--7-|
| D -------------------------------------------------|---------------|
| A -------------------------------------------------|---------------|
| E -------------------------------------------------|---------------|

Fig. 2a (4x) Gtr.1 Fig. 2b (4x) with Gtr.2
E ----------------| E ----------------|
B -3--3-----------| B ----------------|
G -0--0-----------| G ----------------| (2 times)
D -0--0-----------| D ----------------|
A ---------1-2----| A -5--5----1-2----|
E -3--3--3-----3--| E -3--3--3-----3--|
Fig.3 D5
...claim is on you the sights are on me So what do you
E ----------------------------------------------------------
B -3-----------3------------3------------3---------3----3---
G -2-----------2------------2------------2---------2----2---
D -0-----------0-0-3-4-0----0------------0-0-3-4-0-0----0---
A ----------------------------------------------------------
E ----------------------------------------------------------
C5 Fig.4 (4 Times)
do, that`s guaranteed? Hey little girl, You want it all...
E ----------------------------------------------------------
B -3-------------3------3-----------------------------------
G -2-------------2------2-----------------5------5----------
D -0-0-3-4-0-----0------0---0-3-4-0-------5------5----1-2---
A ----------------------------------------3------3--3-----3-
E ----------------------------------------------------------

G C5 Gtr.1 & 2
come on,come on lovin` for the money

E ------------------------------------------
B -3--3----3--3-----1---1--1--1--1--1-------
G -4--2----4--2-(0)-0---0--0--0--0--0------- Guitar 2 plays (0)
D -0--0----0--0-----------------------------
A ------------------3---3--3--3--3--3-------
E -3--3----3--3-----------------------------
G5 D5 (pick scratch)
come on,come on listen to the moneytalk
E ------------------------------------------
B -3--3----3--3-----3---------------3----3--
G -4--2----4--2-(0)-2---------------2----2--
D -0--0----0--0-----0---------------0----0--
A ------------------0--------x⁄-----0----0--
E -3--3----3--3--------------x⁄⁄------------

Lyrics:
Moneytalks

Tailored suits, chauffered cars. Fine hotels and big cigars
Up for grabs, up for а price
Where the red hot girls keep on dancing through the night
The claim is on you .The sights are on me. So what do you do
That's guaranteed
Hey little girl, you want it all
The furs, the diamonds, the paintings on the wall

Come on, come on, love me for the money
Come on, come on, listen to the moneytalk

A French maid, foreign chef.а big house with а king size bed
You've had enough, you ship them out.
The dollar's up - down, you'd better buy the pound
The claim is on you the sights are on me so what do you do
That's guaranteed . Hey little girl, you break the laws
You hustle, you deal, you steal from us all

Come on, come on, loving for the money
Come on, come on, listen to the moneytalk

Money talks, B.S. walks
Money talks, come on, come on

Come on, come on, love me for the money
Come on, come on, listen to the moneytalk

Moneytalk
Добавить новый гитарный бой
Дата: 1-02-2014, 21:36, Добавил: Aurondel, Раздел: Иностранные
Информация
Посетители, находящиеся в группе Гости, не могут оставлять комментарии к данной публикации.



Популярные песни
  • Титаник
  • Пираты карибского моря
  • Все бабы суки бабы бляди
  • Над старым аулом
  • Ламбада
  • Солдат (из к/ф Мы из будущего)
  • За Родину
  • Мальчишка-наркоман
  • Девочка не надо слезы лить напрасно
  • Орленок - Звезды


  • Облако тегов
    , 8 марта, Ария, Армия, би-2, блядь, Валерий Скутин, Война, Грусть, Дворовые, ддт, Звери, Измена, Иностранные, интересное, Кино, КиШ, Красиво, Кузя, лагерное, лагерные песни, лагерь, Лирика, Любовь, Любэ, ляпис трубецкой, Многоточие, Наутилус Помпилиус, о жизни, песня, под гитару, Приколы, Разное, Расставание, Сектор газа, Слезы, Сплин, У костра, Чиж и Ко, Школа

    Показать все теги