Войти
Навигация

Мини-чат
Написалzhelinscky
привет всем заходите на портал гитаристов akkordmovi.com
Написалzhelinscky
всем привет заходите на новый портал гитаристов [leech=http://akkordmovi.com]akko
rdmovi.com[/leech]
НаписалВексель
Всем привет
НаписалAragorn
привет
НаписалVurf
шалом, бездельники!)
НаписалHohner
https://www.youtube.com/watch?v=9
wG5oHsYkvA
Написалslaveckii77
slaveckii77, Я тут))))
Написалslaveckii77
Где все ??? ЭЭЭ народ?
Написалslaveckii77
Где все ??? ЭЭЭ народ?

Только зарегистрированные пользователи могут отправлять сообщения.

Наша группа

0-9  A-Z  А  Б  В  Г  Д  Е  Ж  З  И  К  Л  М  Н  О  П  Р  С  Т  У  Ф  Х  Ц  Ч  Ш  Щ  Ю  Я 

Аккорды к песне AC/DC - Dog Eat Dog

Просмотров: 416, Комментариев: 0
 (голосов: 0)




Транспонировать:
Tune down а halfstep ( Eb )

E5 A5 D5 Fig.1 E5 A5 D5 D5 A5
E ------------|------------| E ---------------|--------------|
B ---------3--|------------| B ------------3--|--------3-----|
G -----2---2--|------------| G ------2-----2--|--------2--2--| Patt. 2
D -2---2---0--|------------| D -2----2-----0--|--------0--2--|
A -2---0------|------------| A -2----0-0-0----|-----------0--|
E -0----------|------------| E -0--0----------|0-0-0-0-------|

A5 D5 G5 D5
E --------------------3------------------------------------|
B -----------3--------3---------------------3---3----------|
G --2--------2--------0---------------------0---2----------| Patt. 3
D --2--------0--------0-----------------0---0---0----------|
A --0--0--0-----0--0---------------------------------------|
E --------------------3-----3---3---3---3---3--------------|


with Patt. 2 (3 x) E5 A5 D5 A5 E5 A5 D5
1. Well it`s а dog eat dog, eat cat too.
A5 E5 A5 D5 A5 E5 A5 D5 A5
So fish eat frog, I eat you.
w/Patt. 3
Business Man, when you make а deal, Do you know you can trust?
w/Patt. 2
Do sign your life away, Do you write your name in dust? Hey,Hey,Hey!

B5 Ev`ry dog has his day A5
E --------------|----------------------|-------------|
B --------------|----------------------|-------------|
G -4--4-4--4-4--|----------------------|-2--2-2--2-2-|
D -4--4-4--4-4--|----------------------|-2--2-2--2-2-|
A -2--2-2--2-2--|----------------------|-0--0-0--0-0-|
E --------------|----------------------|-------------|
Fig.1 E5 A5 D5 E5 A5 D5
It`s а dog eat dog Dog eat dog

Guitar Solo
A5
E ---------------------------------------------------------|
B ----17----17⁄----17----17----17⁄----17----17----17----17-|
G /18----18----/18----18----18----/18----18----18----18----|
D ---------------------------------------------------------|
A ---------------------------------------------------------|
E ---------------------------------------------------------|
D5 A5
E ---------------------------------------------------------|
B -------19----19----17----17----17----17-------17----17---|
G -18/19----19----19----18----18----18----18/18----18----18|
D ---------------------------------------------------------|
A ---------------------------------------------------------|
E ---------------------------------------------------------|
D5
E ---------------------------------------------------------|
B -----17----------17----17----17----17----17----19--------|
G ⁄/18----18-18-18---/18----18----18----18---/19----19-19--|
D ---------------------------------------------------------|
A ---------------------------------------------------------|
E ---------------------------------------------------------|
A5 E5
E ---------------------------------------------------------|
B ----17----17---------------------------------------------|
G -18----18----18⁄--------12----12--------12----12-12⁄-----|
D ----------------⁄-14-13----13----13⁄/13----13--------13--|
A ---------------------------------------------------------|
E ---------------------------------------------------------|
A5 E5 E5
E -----------------------------------12--------------------|
B 12-------12--------14--------12-----------12--------12---|
G ---13-13----13-/14----14--13----13-----13----13⁄/13----13|
D ---------------------------------------------------------|
A ---------------------------------------------------------|
E ---------------------------------------------------------|
A5 A5 E5
E ---------------------------------------------------------|
B ---------12-12--12------12----12----12----12----14----14-|
G ⁄-13⁄-13----13--13--/13----13----13----13----14----14----|
D ---------------------------------------------------------|
A ---------------------------------------------------------|
E ---------------------------------------------------------|
A5
E ---------------------------------------------------------|
B ---12----12----12-------17----17-17⁄--------17----17-----|
G 13----13----13----13-18----18----18⁄-----18----18----18⁄-|
D ---------------------19----19----19⁄-/19-----------------|
A ------------------------------------/--------------------|
E ---------------------------------------------------------|
D5 A5
E ---------------------------------------------------------|
B ------17----17----17----17----19----19----17----17----17-|
G 17/18----18----18----18----18----19----18----18----18----|
D ---------------19----19----19----------19----------------|
A ---------------------------------------------------------|
E ---------------------------------------------------------|

E ---------------------------------------------------------|
B ---------17----17----------17----17----17----17----17----|
G 18-17-18----18----18⁄17-18----18----18----18----18----18-|
D ---------------------------------------------------------|
A ---------------------------------------------------------|
E ---------------------------------------------------------|
D5 A5 E5 A5 D5 E5 A5 D5 (with Patt.1)
E ---------------------------------|---------|--------------|
B 17----17----19-------17----17----|---------|--------------|
G ---18----19----19-18----18-------|---------|--------------|
D ------------------------------19⁄|-------b-|-------b~~~~~~|
A ---------------------------------|------3-5|------3-5-----|
E ---------------------------------|---------|--------------|
Добавить новый гитарный бой
Дата: 27-01-2014, 22:33, Добавил: Aurondel, Раздел: Иностранные
Информация
Посетители, находящиеся в группе Гости, не могут оставлять комментарии к данной публикации.



Популярные песни
  • Титаник
  • Пираты карибского моря
  • Все бабы суки бабы бляди
  • Над старым аулом
  • Ламбада
  • Солдат (из к/ф Мы из будущего)
  • Мальчишка-наркоман
  • За Родину
  • Девочка не надо слезы лить напрасно
  • Орленок - Звезды


  • Облако тегов
    , 8 марта, Ария, Армия, би-2, блядь, Война, гитара, Грусть, Дворовые, ддт, Звери, Измена, Иностранные, интересное, Кино, КиШ, Красиво, Кузя, лагерное, лагерные песни, лагерь, Лирика, Любовь, Любэ, Многоточие, Море, Наутилус Помпилиус, о жизни, песня, под гитару, Приколы, Разное, Расставание, Сектор газа, Слезы, Сплин, У костра, Чиж и Ко, Школа

    Показать все теги