Войти
Навигация

Мини-чат
Написалzhelinscky
23 октября 2016
привет всем заходите на портал гитаристов akkordmovi.com
Написалzhelinscky
23 октября 2016
всем привет заходите на новый портал гитаристов [leech=http://akkordmovi.com]akko
rdmovi.com[/leech]
НаписалВексель
7 августа 2016
Всем привет
НаписалAragorn
4 апреля 2016
привет
НаписалVurf
1 марта 2016
шалом, бездельники!)
НаписалHohner
8 февраля 2016
https://www.youtube.com/watch?v=9
wG5oHsYkvA
НаписалHohner
8 февраля 2016
smile-03
Написалslaveckii77
24 января 2016
slaveckii77, Я тут))))
Написалslaveckii77
24 января 2016
Где все ??? ЭЭЭ народ?
Написалslaveckii77
24 января 2016
Где все ??? ЭЭЭ народ?

Только зарегистрированные пользователи могут отправлять сообщения.

Наша группа

0-9  A-Z  А  Б  В  Г  Д  Е  Ж  З  И  К  Л  М  Н  О  П  Р  С  Т  У  Ф  Х  Ц  Ч  Ш  Щ  Ю  Я 

Аккорды к песне Бизе Жорж - Хабанера Кармен (из оперы "Кармен") (2 вариант)

Просмотров: 1143, Комментариев: 0
 (голосов: 0)




Транспонировать:
E |------------|----------------|
B |------3--2--|--1--1--1--0----|
G |------------|--------------3-|
D |------------|----------------|
A |------------|----------------|
E |------------|----------------|

E |------------|-------------|-----------|------------|---------|
B |------------|-------------|------3--2-|-1--1-1-0---|---------|
G |-2---2-1--0-|--------0----|-----------|----------3-|-2-2-0---|
D |------------|-3--2p3----3-|-2---------|------------|-------3-|
A |------------|-------------|-----------|------------|---------|
E |------------|-------------|-----------|------------|---------|

E |-----------|---------|------------|------------|-------------|
B |-----------|----3--2-|-1-1-1-0----|------------|-------------|
G |-----------|---------|----------3-|-2---2-1--0-|--------0----|
D |-2-0-2-3-2-|-0-------|------------|------------|-3--2p3----3-|
A |-----------|---------|------------|------------|-------------|
E |-----------|---------|------------|------------|-------------|

E |---------|---------------|-----------|------------|----------|
B |----3--2-|-1--1--1--0----|-----------|------------|----------|
G |---------|-------------3-|-2--2-0----|------------|---2------|
D |-2-------|---------------|---------3-|-2--0-2-3-2-|-0---0--2-|
A |---------|---------------|-----------|------------|----------|
E |---------|---------------|-----------|------------|----------|

E |----------|------------|-------------|-----------|-----------|
B |----------|------------|---------0---|----0------|----0------|
G |---2------|----------0-|-2-2-2-2---2-|-0---------|-0----0----|
D |-4---4--2-|-0---2-4----|-------------|------2--4-|---------4-|
A |----------|------------|-------------|-----------|-----------|
E |----------|------------|-------------|-----------|-----------|

E |---------|--------------|---------0-|-2---------|------------|
B |---------|-0-0-0-0-2--0-|------3----|-----------|------------|
G |-----0-2-|--------------|-2--2------|----2------|----------0-|
D |-2-4-----|--------------|-----------|------4--2-|-0---2-4----|
A |---------|--------------|-----------|-----------|------------|
E |---------|--------------|-----------|-----------|------------|

E |--------------|-------0--2--|--3-----------|-------------|
B |---------3--2-|-----0-------|------0-------|-------------|
G |-2-2-2-2------|-0-----------|--------0-----|--------0--2-|
D |--------------|-------------|-----------4--|--2---4------|
A |--------------|-------------|--------------|-------------|
E |--------------|-------------|--------------|-------------|

E |---------2-0-2-0-|----|
B |-2-0-------------|--3-|
G |-----2-0---------|----|
D |-----------------|----|
A |-----------------|----|
E |-----------------|----|
Добавить новый гитарный бой
Дата: 26-01-2014, 15:33, Добавил: Aurondel, Раздел: Бизе Жорж
Информация
Посетители, находящиеся в группе Гости, не могут оставлять комментарии к данной публикации.



Популярные песни
  • Титаник
  • Пираты карибского моря
  • Все бабы суки бабы бляди
  • Над старым аулом
  • Ламбада
  • Солдат (из к/ф Мы из будущего)
  • Мальчишка-наркоман
  • За Родину
  • Девочка не надо слезы лить напрасно
  • Орленок - Звезды


  • Облако тегов
    , 8 марта, Ария, Армия, би-2, блядь, Война, гитарное, Гражданская оборона, Грусть, Дворовые, ддт, Звери, Измена, Иностранные, интересное, Кино, КиШ, Красиво, Кузя, лагерное, лагерь, Лирика, Любовь, Любэ, ляпис, Многоточие, Наутилус Помпилиус, о жизни, песня, под гитару, Приколы, Разное, Расставание, Сектор газа, Слезы, Сплин, У костра, Чиж и Ко, Школа

    Показать все теги