Войти
Навигация

Мини-чат
Написалzhelinscky
23 октября 2016
привет всем заходите на портал гитаристов akkordmovi.com
Написалzhelinscky
23 октября 2016
всем привет заходите на новый портал гитаристов [leech=http://akkordmovi.com]akko
rdmovi.com[/leech]
НаписалВексель
7 августа 2016
Всем привет
НаписалAragorn
4 апреля 2016
привет
НаписалVurf
1 марта 2016
шалом, бездельники!)
НаписалHohner
8 февраля 2016
https://www.youtube.com/watch?v=9
wG5oHsYkvA
НаписалHohner
8 февраля 2016
smile-03
Написалslaveckii77
24 января 2016
slaveckii77, Я тут))))
Написалslaveckii77
24 января 2016
Где все ??? ЭЭЭ народ?
Написалslaveckii77
24 января 2016
Где все ??? ЭЭЭ народ?

Только зарегистрированные пользователи могут отправлять сообщения.

Наша группа

0-9  A-Z  А  Б  В  Г  Д  Е  Ж  З  И  К  Л  М  Н  О  П  Р  С  Т  У  Ф  Х  Ц  Ч  Ш  Щ  Ю  Я 

Аккорды к песне Бетховен Людвиг ван - Немецкий танец (аллегретто в A из "6 немецких танцев")

Просмотров: 954, Комментариев: 0
 (голосов: 0)




Транспонировать:
Тональность: A Major
Размер: 3/4
Темп: Allegretto
D . C .
E ||-----|-------|---0-2-0---|-------|
B ||-----|-2-2-2-|-4-------4-|-0-0-0-|
G ||*----|-------|-----------|-------|
D ||*-2.-|-------|-----------|-------|

G |-----0-----|-----------|------------|
D |-2-3---3-2-|---0-2-0---|-0-2-3--2-0-|
A |-----------|-2-------2-|------------|
E |-----------|-2---------|------------|

0

0--4----4-|
A ||-----|-0-0-0-|-2-----|-------|-0---|-----0---0-|-----------|
E ||-----|-------|-------|-4-4-4-|-----|-2---------|-----------|
2 3 4 3 3 2 3 3 3 3 1 2 1 3
2 2 3

Конец. c2--/ c2--/ c2 c2--/ c2--/
E |---------------| |--|-------------|------------|-------------|
B |-----0---------| |--|-2---0---2---|-3-0--------|-2---0---2---|
G |-1-2---2-1-2--*| |--|-------------|-----1---1--|-------------|
D |-----0--------*| |2.|---2---2---2-|-------2---2|---2---2---2-|
A |---------2-0---| |--|-0-------0---|-2----------|-0-------0---|
E|-0-------------| |--|-----4-------|-----0------|-----4-------|
1 2 2 1 3 3 1 4 1 2 3 1
2

c2 c2--/ c2-----------/
E |--------------|-0-------0---|-2---4---5---|---0-----------|
B |-3-0----------|-----3-------|-------------|-2-----2-0-----|
G |------1---1---|---2---2---2-|---2---2---2-|-----2-----1-2-| D . C
D |--------2---2-|-------------|-0---2---4---|-2---2---------|
A |-2------------|-4---2---4---|-------------|-------------0-|
E |------0-------|-------------|-------------|---------0-----|
4 1 2 3 1 2 3 1 4 4 3 2 3 1 2
3 1 1
Добавить новый гитарный бой
Дата: 23-01-2014, 19:41, Добавил: Aurondel, Раздел: Бетховен Людвиг ван
Информация
Посетители, находящиеся в группе Гости, не могут оставлять комментарии к данной публикации.



Популярные песни
  • Титаник
  • Пираты карибского моря
  • Все бабы суки бабы бляди
  • Над старым аулом
  • Ламбада
  • Солдат (из к/ф Мы из будущего)
  • Мальчишка-наркоман
  • За Родину
  • Девочка не надо слезы лить напрасно
  • Орленок - Звезды


  • Облако тегов
    , 8 марта, Ария, Армия, би-2, блядь, Война, гитарное, Гражданская оборона, Грусть, Дворовые, ддт, Звери, Измена, Иностранные, интересное, Кино, КиШ, Красиво, Кузя, лагерное, лагерь, Лирика, Любовь, Любэ, ляпис, Многоточие, Наутилус Помпилиус, о жизни, песня, под гитару, Приколы, Разное, Расставание, Сектор газа, Слезы, Сплин, У костра, Чиж и Ко, Школа

    Показать все теги