Войти
Навигация

Мини-чат
Написалzhelinscky
привет всем заходите на портал гитаристов akkordmovi.com
Написалzhelinscky
всем привет заходите на новый портал гитаристов [leech=http://akkordmovi.com]akko
rdmovi.com[/leech]
НаписалВексель
Всем привет
НаписалAragorn
привет
НаписалVurf
шалом, бездельники!)
НаписалHohner
https://www.youtube.com/watch?v=9
wG5oHsYkvA
Написалslaveckii77
slaveckii77, Я тут))))
Написалslaveckii77
Где все ??? ЭЭЭ народ?
Написалslaveckii77
Где все ??? ЭЭЭ народ?

Только зарегистрированные пользователи могут отправлять сообщения.

Наша группа

0-9  A-Z  А  Б  В  Г  Д  Е  Ж  З  И  К  Л  М  Н  О  П  Р  С  Т  У  Ф  Х  Ц  Ч  Ш  Щ  Ю  Я 

Аккорды к песне AC/DC - Big Gun

Просмотров: 2148, Комментариев: 0
 (голосов: 0)




Транспонировать:
Noises from Brian

Riot on the radio, pictures on the TV
Invader man take what he can, shootout on the silver screen
Stickinґ ґem up and knocking them down, living out а fantasy
Thereґs а bad man cruising around in а big black limousine
Donґt let it be wrong, donґt let it be right
Get in his way, youґre dead in his sights

Big gun
Big gun
Number one
Big gun
Big gun kick the hell out of you

Terminators, Uzi makers, shootinґ up Hollywood
Snakes alive with а forty-five, getting off and doing no good.
If you ainґt wise, theyґll cannibalise, tear flesh off you
Classified, lady killers, prayinґ in the human zoo
They saddle you up and take you to town
Better look out, when he come around

Big gun
Big gun
Number one
Big gun
Big gun kick the hell out of you

Show down
Yeah

LEAD BREAK + more noises from Brian Johnson

Big gun
Big gun
Number one
mmmmmmmmmmm
aauuugh aauuugh
yaay yaaay
mmmmmmmmmmms
buba buba buba buba buba buba
Big gun, gotta hot one
Big gun, gotta number one
Big gun, loaded and cocked
Big gun, hot hot hot
Got big gun, ready or not
Big gun, give it, give it а shot, come on

(During next two lines Big Gun is repeated in background)
Terminator, Uzi Maker
Regulators, gonna get you later

Big gun kick the hell out of you


Two guitars in this one -- guitar 1, which plays Riff а and all
the solos, is а clean electric. Guitar 2, which plays the
rest, is distorted. To get it "officially," use both guitars;
if it doesnґt matter (probably), one will do fine.

Lyrics are questionable at best since
I can barely hear them -- might want
to see а doctor about that throat.

=========================== cut here ==========================

Riff A: 2x in the intro
E |-GUITAR 1=>-3---0----0--0-------|-----------3---0---0-----|
B |------------------3--------3--0-|-----------------3-----3-|
G |--------------------------------|-------------------------|
D |--2--2--<==GUITAR 2-------------|--2--2-------------------|
A |--2--2--------------------------|--2--2-------------------|
E |--0--0--------------------------|--0--0-------------------|

Riff B: (play once with each line of lyrics)
E |------------------------------------|
B |------------------------------------|
G |------------------------------------|
D |--------0---------------------------|
A |------2-----0-4---0-2---0-4-----2---|
E |--0-0-----0-----0-----0-----0-3---3-|
Iґm playing on the radio
Pictures on the TV
And every man take a-what he can
Shoot ґem on the silver screen

Riff C: (same timing as above)
E |------------------------------------|
B |------------------------------------|
G |--------0---------------------------|
D |------2-----0-4---0-2---0-4-----2---|
A |----0-----0-----0-----0-----0-3---3-|
E |------------------------------------|
Stickinґ the law, knockinґ them down
Livinґ out а fantasy


Riff B with:

Thereґs а bad man cruisinґ around
In а big black limousine


Riff D:
| | | | || | | | | |
B ( vii ) A ( v ) B ( vii )
Donґt let it be wrong, donґt let it be right

A ( v ) G ( iii ) D#/F Em
Give into spite, and double your sights

======
CHORUS
======

Riff а with:
Big gun -- big gun, number one
Big gun

E |-----------------------------------| G
B |-----------------------------------| T
G |----0------------------------------| R
D |------2--0------------------2------|
A |--------------2P0---2-0------------| #
E |-------------------------3--0------| 2
Big gun, can you hit on the loon
(I SAID I couldnґt hear the words!)


[Riff B twice]


VERSE 2
=======
With Riff B:
Terminatorґs using acres
Shooting up Hollywood
Snakes he ate with а funny fad
Gettinґ up ґnґ doinґ no good

With Riff C:
If you ainґt wise, uncover the lies
To fuss of you

With Riff B:
Classified lady killers
Playinґ in the U.N. too

With Riff D:
The sooner you are, youґre taking the town
Better look out when heґs cominґ ґround

[CHORUS]

solo:
E |--3P0-0--(GTR 1)---------------------------|
B |-----3-------------------------------------|(GTR 2)
G |-------------------------------------------|
D |--------------------------2-----5----2P0H2-|
A |-------------------------------------------|
E |-------------------------------------------|


E |---------------------------------------------------------|
B |---------------------------------------------------------|
G |---------------------------------------------------------|
D |---5--4P2P0--4P2P0-2H5P2P0-----------0-----------2-----2-|
A |-----------------------------2P0---2---2P0---------------|
E |---------------------------------3---------3-2-0---3P0---|
etc. etc.

[The soloing is in E minor (I think) -- just go crazy and youґll
get it close enough]

Repeat the CHORUS once more and then free-form it to the end.
Добавить новый гитарный бой
Дата: 23-01-2014, 17:57, Добавил: Aurondel, Раздел: Иностранные
Информация
Посетители, находящиеся в группе Гости, не могут оставлять комментарии к данной публикации.



Популярные песни
  • Титаник
  • Пираты карибского моря
  • Все бабы суки бабы бляди
  • Над старым аулом
  • Ламбада
  • Солдат (из к/ф Мы из будущего)
  • Мальчишка-наркоман
  • За Родину
  • Девочка не надо слезы лить напрасно
  • Орленок - Звезды


  • Облако тегов
    , 8 марта, Ария, Армия, Батеньков Александр, би-2, блядь, Война, гитарное, Гражданская оборона, Грусть, Дворовые, ддт, Звери, Измена, Иностранные, интересное, Кино, КиШ, Красиво, Кузя, лагерное, лагерь, Лирика, Любовь, Любэ, Многоточие, Наутилус Помпилиус, о жизни, песня, под гитару, Приколы, Разное, Расставание, Сектор газа, Слезы, Сплин, У костра, Чиж и Ко, Школа

    Показать все теги