Войти
Навигация

Мини-чат
Написалzhelinscky
привет всем заходите на портал гитаристов akkordmovi.com
Написалzhelinscky
всем привет заходите на новый портал гитаристов [leech=http://akkordmovi.com]akko
rdmovi.com[/leech]
НаписалВексель
Всем привет
НаписалAragorn
привет
НаписалVurf
шалом, бездельники!)
НаписалHohner
https://www.youtube.com/watch?v=9
wG5oHsYkvA
Написалslaveckii77
slaveckii77, Я тут))))
Написалslaveckii77
Где все ??? ЭЭЭ народ?
Написалslaveckii77
Где все ??? ЭЭЭ народ?

Только зарегистрированные пользователи могут отправлять сообщения.

Наша группа

0-9  A-Z  А  Б  В  Г  Д  Е  Ж  З  И  К  Л  М  Н  О  П  Р  С  Т  У  Ф  Х  Ц  Ч  Ш  Щ  Ю  Я 

Аккорды к песне Бетховен Людвиг ван - К Элизе (4 вариант)

Просмотров: 959, Комментариев: 0
 (голосов: 1)




Транспонировать:
Тональность: G Major
Размер: 3/4
Темп: Poco moto ma non troppo

E ||--7-6-|-7-6-7---5---|-0---------0-|-2---------2-|
B ||------|-------7---8-|---------0---|-------0-4---|
G ||*-----|-------------|-------0-----|-------------|
D ||*-----|-------------|-----2-------|-----1-------|
A ||------|-------------|---2---------|-2-2---------|
D ||------|-------------|-2-----------|-------------|

E |-3-------7-6-|-7-6-7---5---|
B |-------------|-------7---8-|
G |-------0-----|-------------|
D |-----2-------|-------------|
A |---2---------|-------------|
E |-2-----------|-------------|

E |-0---------0-|-2-------3-2-|-0------||
B |---------0---|-------0-----|--------||
G |-------0-----|-------------|-------*||
D |-----2-------|-----1-------|-----2-*||
A |---2---------|-2-2---------|---2----||
D |-2-----------|-------------|-2------||

E |-0-----2-3-5-|-7-------8-7-|-5-------7-5-|
B |-------------|-------------|-------------|
G |-------------|-----0-7-----|-------5-----|
D |-----2-------|---0---------|-----4-------|
A |---2---------|-------------|---5---------|
E |-2-----------|-5-----------|-0-----------|

E |-3-------5-3-|-2-------7---|-----7-----6-|
B |-------------|-----0-------|-0-----------|
G |-------4-----|-------4-----|---4---3-4---|
D |-----2-------|-------------|-------------|
A |---2---------|-2-2-------2-|-------------|
D |-2-----------|-------------|-------------|

E |-7-----6-7-6-|-7-6-7---5---|-0---------0-|
B |-------------|-------7---8-|---------0---|
G |---3-4-------|-------------|-------0-----|
D |-------------|-------------|-----2-------|
A |-------------|-------------|---2---------|
E |-------------|-------------|-2-----------|

E |-2---------2-|-3-------7-6-|-7-6-7---5---|
B |-------0-4---|-------------|-------7---8-|
G |-------------|-------0-----|-------------|
D |-----1-------|-----2-------|-------------|
A |-2-2---------|---2---------|-------------|
D |-------------|-2-----------|-------------|

E |-0---------0-|-2-------3-2-|---0.---|
B |---------0---|-------0-----|---0.---|
G |-------0-----|-------------|---0.---|
D |-----2-------|-----1-------|--------|
A |---2---------|-2-2---------|--------|
E |-2-----------|-------------|---2.---|
Добавить новый гитарный бой
Дата: 22-01-2014, 19:46, Добавил: Aurondel, Раздел: Бетховен Людвиг ван
Информация
Посетители, находящиеся в группе Гости, не могут оставлять комментарии к данной публикации.



Популярные песни
  • Титаник
  • Пираты карибского моря
  • Все бабы суки бабы бляди
  • Над старым аулом
  • Ламбада
  • Солдат (из к/ф Мы из будущего)
  • Мальчишка-наркоман
  • За Родину
  • Девочка не надо слезы лить напрасно
  • Орленок - Звезды


  • Облако тегов
    , 8 марта, Ария, Армия, Батеньков Александр, би-2, блядь, Война, гитарное, Гражданская оборона, Грусть, Дворовые, ддт, Звери, Измена, Иностранные, интересное, Кино, КиШ, Красиво, Кузя, лагерное, лагерь, Лирика, Любовь, Любэ, Многоточие, Наутилус Помпилиус, о жизни, песня, под гитару, Приколы, Разное, Расставание, Сектор газа, Слезы, Сплин, У костра, Чиж и Ко, Школа

    Показать все теги