Войти
Навигация

Мини-чат
Написалzhelinscky
23 октября 2016
привет всем заходите на портал гитаристов akkordmovi.com
Написалzhelinscky
23 октября 2016
всем привет заходите на новый портал гитаристов [leech=http://akkordmovi.com]akko
rdmovi.com[/leech]
НаписалВексель
7 августа 2016
Всем привет
НаписалAragorn
4 апреля 2016
привет
НаписалVurf
1 марта 2016
шалом, бездельники!)
НаписалHohner
8 февраля 2016
https://www.youtube.com/watch?v=9
wG5oHsYkvA
НаписалHohner
8 февраля 2016
smile-03
Написалslaveckii77
24 января 2016
slaveckii77, Я тут))))
Написалslaveckii77
24 января 2016
Где все ??? ЭЭЭ народ?
Написалslaveckii77
24 января 2016
Где все ??? ЭЭЭ народ?

Только зарегистрированные пользователи могут отправлять сообщения.

Наша группа

0-9  A-Z  А  Б  В  Г  Д  Е  Ж  З  И  К  Л  М  Н  О  П  Р  С  Т  У  Ф  Х  Ц  Ч  Ш  Щ  Ю  Я 

Аккорды к песне Бетховен Людвиг ван - К Элизе (3 вариант)

Просмотров: 893, Комментариев: 0
 (голосов: 0)




Транспонировать:
Обозначения:
h = хамер
p = пулл
s = слайд
H = флажолет
A = искусственный флажолет

E |--------12-11|12-11-12-7-10-8|-5---------5|-7-----0-4-7-|
B |--------------|---------------|---------5--|------------|
G |--------------|---------------|-------5----|------------|
D |--------------|---------------|-----7------|-----6------|
A |--------------|---------------|---7--------|---7--------|
E |-------------|---------------|-5----------|-0-----------|

E |------0-12-11|12-11-12-7-10-8|-5---------5|-7-------8-7-|
B |--------------|---------------|---------5--|-------5----|
G |--------------|---------------|-------5----|------------|
D |-----7--------|---------------|-----7------|-----6------|
A |---7----------|---------------|---7--------|---7--------|
E |-------------|---------------|-5----------|-0-----------|

E |----------||-5-----7-8-10||-12------13-12|10------12-10-|
B |-----------||-------------||--------8-----|-----0-------|
G |----------@||-----2-------||@-------------|---0--10-----|
D |-----7----@||---2---------||@----10-------|-------------|
A |---7-------||-0-----------||---10---------|10-----------|
E |----------||-------------||--8-----------|--------------|

E |-------10-8-|-7------12--|12H12H5-11-12-11|12-11-12-11-12-11-|
B |-------5----|------------|----------------|------------------|
G |------------|-----9-9---9|----------------|------------------|
D |-----7------|------------|----------------|------------------|
A |---7--------|---7--------|----------------|------------------|
E |------------|-0----------|----------------|------------------|

E |-|12-11-12-7-10-8|-5---------5|-7-----0---7|-8-----0-12-11-|
B |-----------------|---------5--|---------9--|---------------|
G |-----------------|-------5----|------------|---------------|
D |-----------------|-----7------|-----6------|-----7---------|
A |-----------------|---7--------|---7--------|---7-----------|
E |-----------------|-5----------|-0----------|-5-------------|

E |-12-11-12-7-10-8|-5---------5|-7-------8-7|-5-----7-8-10-|
B |----------------|---------5--|-------5----|--------------|
G |----------------|-------5----|------------|-----2------@-|
D |----------------|-----7------|-----6------|---2--------@-|
A |----------------|---7--------|---7--------|-0------------|
E |----------------|-5----------|-0----------|--------------|

E |------------|----------1--0|-0-------6--5|-5-----------|
B |-------1-1-1|--1-----------|-------------|---8-6-5-----|
G |-----2-----3|-2----2---2---|-----7---7---|---------7-5-|
D |---2---2-3-2|3---3---3---3-|---8---8---8-|-------------|
A |-0-----1-0-1|--------------|-8-----------|-8-----------|
E |-----------3|--1-----------|-------------|-------------|

E |-----------------|------------|-0-----0-1--|-|
B |------------------|-1-------3-4|-----1-------|
G |-3---2---3p2p0h2h3|---2---2---2|---2---2---2-|
D |-3----------------|------------|---------0---|
A |---3---3-3--------|-----3---3--|-------------|
E |-----------------|-1----------|-0----------|-|

E |----------------|--3-3-3-3-3-3|-----8--------------3p1--|-|
B |-1---3p1p0h1-3--0|-1-----0-1-3-|---8--12-10-8-----3-----3-|
G |-----------------|---0-2-------|-9-----------10-9---------|
D |---2-----2-----3-|-------------|--------------------------|
A |-----------------|-3-----------|----------8-------2-------|
E |----3-------3---|-------------|-8-----------------------|-|

E |-3-3-3-3-3-3|-----8--------------3p1--|-|
B |-1-----0-1-3-|---8--12-10-8-----3-----3-|
G |---0-2-------|-9-----------10-9---------|
D |-------------|--------------------------|
A |-3-----------|----------8-------2-------|
E |------------|-8-----------------------|-|

E |-----------------------|---------0--|-0-----H12--|---|
B |-5-6-5-4-5---5-4-5---5-4|-5-----0----|-----H12----|--|
G |-4---------4-------4----|-----------8|----------A8|*-|
D |------------------------|------------|------------|--|
A |------------------------|------------|------------|--|
E |-----------------------|------------|------------|---|

*
Здесь искусственный флажолет.
Для того, чтобы это сыграть зажимаете 8-ой лад, указательным
пальцем правой руки выполняется глушение на 20 ладу (12+8),
а безымянный палец выполняет щипок. Если вы считаете это
садизмом пролесните дальше. >:->

E |-|H12-H12-H12--|12-11-12-7-10-8|-5---------5|-7-----0---7-|
B |-------------|---------------|---------5--|---------9--|--|
G |---A8--A8--A8|---------------|-------5----|------------|--|
D |-------------|---------------|-----7------|-----6------|--|
A |-------------|---------------|---7--------|---7--------|--|
E |------------|---------------|-5----------|-0----------|---|

E |------0-12-11|12-11-12-7-10-8|-5---------5|-7-------8-7-|
B |--------------|---------------|---------5--|-------5----|
G |--------------|---------------|-------5----|------------|
D |-----7--------|---------------|-----7------|-----6------|
A |---7----------|---------------|---7--------|---7--------|
E |-------------|---------------|-5----------|-0-----------|

E |------7-8-10|12------13-12|10------12-10-|
B |-------------|-------8-----|-----0-------|
G |-----2-------|-------------|---0--10-----|
D |---2---------|----10-------|-------------|
A |-0-----------|--10---------|10-----------|
E |------------|-8-----------|--------------|

E |-------10-8|-7------12--|12H12H5-11-12-11|12-11-12-11-12-11-|
B |-------5----|------------|----------------|-----------------|
G |------------|-----9-9---9|----------------|-----------------|
D |-----7------|------------|----------------|-----------------|
A |---7--------|---7--------|----------------|-----------------|
E |-----------|-0----------|----------------|------------------|

E |-|12-11-12-7-10-8|-5---------5|-7-----0-4-7|-8-----0-12-11-|
B |---------------|---------5--|------------|--------------|--|
G |---------------|-------5----|------------|--------------|--|
D |---------------|-----7------|-----6------|-----7--------|--|
A |---------------|---7--------|---7--------|---7----------|--|
E |--------------|-5----------|-0----------|-5------------|---|

E |-|12-11-12-7-10-8|-5---------5|-7-------8-7-|
B |---------------|---------5--|-------5----|--|
G |---------------|-------5----|------------|--|
D |---------------|-----7------|-----6------|--|
A |---------------|---7--------|---7--------|--|
E |--------------|-5----------|-0----------|---|

E |-----------|-9----------|10------12-13|13------13--|-|
B |------------|-8----------|10------14-15|15------15---|
G |------------|-9----------|10-----------|13------13---|
D |------------|-8----------|-------------|-------------|
A |---0---0---0|-0-0-0-0-0-0|-0-0-0-0-0--0|-0-0-0-0-0-0-|
E |----5---5--|------------|-------------|------------|-|

E |-|12----------|10-------8-7|-5-------5--|-5---8---7-|
B |-|13----------|------------|-7----------|-----------|
G |-|14----------|10-------9-7|-5-------5--|-5---9---7-|
D |------------|-0-0-0-0-0-0|-7----------|-------------|
A |-0-0-0-0-0-0|-0-0-0-0-0-0|-6-6-6-6-6-6|-0-0-0-0-0-0-|
E |-----------|------------|-5-5-5-5-5-5|-0-0-0-0-0-0|-|

E |-----------|------------|---------0-1|-1-------1--|-|
B |------------|-2----------|-3-------2-3|-3-------3---|
G |-5----------|-0----------|-2----------|-------------|
D |------------|-2----------|-3----------|-------------|
A |---0---0---0|-0-0-0-0-0-0|-0-0-0-0-0-0|-0-0-0-0-0-0-|
E |----5---5--|------------|------------|------------|-|

I........... I.
| | | | | | | | | | | |
E |-----------|------------|------------|------------|-|
B |-3----------|-4-------3-1|------------|-------------|
G |------------|-0----------|-3-------2--|-1-------1---|
D |------------|---------3-1|-0-------0--|-0-------0---|
A |-1-1-1-1-1-1|-1-1-1-1-1-1|-1-1-1-1-1-1|-2-2-2-2-2-2-|
E |-----------|------------|------------|------------|-|

p pp
| | | | | | | | |
E |-----------|------------|-----------0------|-|
B |------------|-0----------|---------1---3-1-0-|
G |-2----------|-1----------|-2-----2-----------|
D |-2----------|-0----------|-----2-------------|
A |-3----------|-2----------|-0h3---------0-----|
E |-----------|-0----------|------------------|-|

V..... А теперь обещаный хитрый кусок
| | | | | |
E |------5-8-12-10-8-7|---8-H12-A5-A8-A0-A10-A8-A7-|
B |-----5--------------|10-------------------------|
G |---5----------------|---------------------------|
D |-7------------------|---------------------------|
A |-0-------------0----|-0------------------0------|
E |-------------------|----------------------------|

* Это играется у правого края отверстия (для правой руки)
и вершнее E
Должно звучать.
Данная конструкция может меняться в зависимости от гитары.
Важно получить по взможности громкие и чистые флажолеты.
| Здесь не обязательно исользовать
| флажолеты. Можно на 1-ой струне
| зажать 11-ый лад и постепенно
| спускаться.

E |-|A6-A5-A4-A3-A2-A1-A0------|-------------------------|
B |---------------------A4-A3|A2-A1-A0-------------------|
G |--------------------------|---------A3-A2-A1-A0-------|
D |--------------------------|---------------------A4-A3-|
A |-0------------------------|---------------------------|
E |-------------------------|--------------------------|-|

E |----------------|-5---------5|-7-----0-4-7-|
B |-----------------|---------5--|------------|
G |-----------------|-------5----|------------|
D |-|A2-A1-A2----A0---|-----7------|-----6----|
A |---------A2----A3|---7--------|---7--------|
E |----------------|-5----------|-0-----------|

E |------0-12-11|12-11-12-7-10-8|-5---------5|-7-------8-7-|
B |--------------|---------------|---------5--|-------5----|
G |--------------|---------------|-------5----|------------|
D |-----7--------|---------------|-----7------|-----6------|
A |---7----------|---------------|---7--------|---7--------|
E |-------------|---------------|-5----------|-0-----------|

E |------7-8-10|12------13-12|10------12-10-|
B |-------------|-------8-----|-----0-------|
G |-----2-------|-------------|---0--10-----|
D |---2---------|----10-------|-------------|
A |-0-----------|--10---------|10-----------|
E |------------|-8-----------|--------------|

E |-------10-8|-7------12--|12H12H5-11-12-11|12-11-12-11-12-11-|
B |-------5----|------------|----------------|-----------------|
G |------------|-----9-9---9|----------------|-----------------|
D |-----7------|------------|----------------|-----------------|
A |---7--------|---7--------|----------------|-----------------|
E |-----------|-0----------|----------------|------------------|

E |-|12-11-12-7-10-8|-5---------5|-7-----0-4-7|-8-----0-12-11-|
B |---------------|---------5--|------------|--------------|--|
G |---------------|-------5----|------------|--------------|--|
D |---------------|-----7------|-----6------|-----7--------|--|
A |---------------|---7--------|---7--------|---7----------|--|
E |--------------|-5----------|-0----------|-5------------|---|

E |-|12-11-12-7-10-8|-5---------5|-7-------8-7|-5-------|
B |---------------|---------5--|------------|-------The-|
G |---------------|-------5----|-------7----|-5---------|
D |---------------|-----7------|-----6------|-------End-|
A |---------------|---7--------|---7--------|-0---------|
E |--------------|-5----------|-0----------|------------|
Добавить новый гитарный бой
Дата: 22-01-2014, 16:02, Добавил: Aurondel, Раздел: Бетховен Людвиг ван
Информация
Посетители, находящиеся в группе Гости, не могут оставлять комментарии к данной публикации.



Популярные песни
  • Титаник
  • Пираты карибского моря
  • Все бабы суки бабы бляди
  • Над старым аулом
  • Ламбада
  • Солдат (из к/ф Мы из будущего)
  • Мальчишка-наркоман
  • За Родину
  • Девочка не надо слезы лить напрасно
  • Орленок - Звезды


  • Облако тегов
    , 8 марта, Ария, Армия, би-2, блядь, Война, гитара, Грусть, Дворовые, ддт, Звери, Измена, Иностранные, интересное, Кино, КиШ, Красиво, Кузя, лагерное, лагерные песни, лагерь, Лирика, Любовь, Любэ, Многоточие, Море, Наутилус Помпилиус, о жизни, песня, под гитару, Приколы, Разное, Расставание, Сектор газа, Слезы, Сплин, У костра, Чиж и Ко, Школа

    Показать все теги