Войти
Навигация

Мини-чат
Написалzhelinscky
23 октября 2016
привет всем заходите на портал гитаристов akkordmovi.com
Написалzhelinscky
23 октября 2016
всем привет заходите на новый портал гитаристов [leech=http://akkordmovi.com]akko
rdmovi.com[/leech]
НаписалВексель
7 августа 2016
Всем привет
НаписалAragorn
4 апреля 2016
привет
НаписалVurf
1 марта 2016
шалом, бездельники!)
НаписалHohner
8 февраля 2016
https://www.youtube.com/watch?v=9
wG5oHsYkvA
НаписалHohner
8 февраля 2016
smile-03
Написалslaveckii77
24 января 2016
slaveckii77, Я тут))))
Написалslaveckii77
24 января 2016
Где все ??? ЭЭЭ народ?
Написалslaveckii77
24 января 2016
Где все ??? ЭЭЭ народ?

Только зарегистрированные пользователи могут отправлять сообщения.

Наша группа

0-9  A-Z  А  Б  В  Г  Д  Е  Ж  З  И  К  Л  М  Н  О  П  Р  С  Т  У  Ф  Х  Ц  Ч  Ш  Щ  Ю  Я 

Аккорды к песне Бетховен Людвиг ван - Девятая симфония (Ода радости) (3 вариант)

Просмотров: 645, Комментариев: 0
 (голосов: 2)




Транспонировать:
E |-0--0---1--3-|-3--1--0----|----------0-|-0--------|
B |-------------|-0--------3-|-1--1--3----|------3-3-|
G |-0-----------|------------|----------0-|-0--------|
D |--------0--2-|-2--0-------|-2--2--3----|--------3-|
A |-3--3--------|-------3--2-|-3----------|----------|
E |-------------|------------|------------|-3--------|

E |-0--0---1--3-|-3--1--0----|
B |-------------|-0--------3-|
G |-0-----------|------------|
D |--------0--2-|-2--0-------|
A |-3--3--------|-------3--2-|
E |-------------|------------|

E |----------0-|----------||--------0----|----0-1-0----|
B |-1--1--3----|-3----1-1-||--3--3-----1-|-3---------1-|
G |----------0-|----------||*-0-----0----|-0------0----|
D |-2--2--3----|-3------2-||*------------|-------------|
A |-3----------|--------3-||--2-----3----|-2------3----|
E |------------|-3--------||-------------|-------------|

E |----0-1-0----|----------0-|
B |-3---------3-|-1--3-----1-|
G |-0------1----|-2--2--0----|
D |-------------|-------0----|
A |-2------2----|-0----------|
E |-------------|----2--3----|

E |-0--0--1--3-|-3--1--0----|----------0-|
B |-1-----3----|-0-----0--3-|-1--1--3----|
G |------------|------------|-0--------0-|
D |------------|------------|-2-----3----|
A |-3-----3----|------------|------------|
E |------------|-3-----3----|------------|

E |-----------|| |----------|
B |-3----1-1--|| |-3----1-1-|
G |----------*|| |----------|
D |-3------2-*|| |-3------2-|
A |--------3--|| |--------3-|
E |-3---------|| |-3--------|

Обозначения:

E ||------------||
B ||------------||
G ||*-повторить*||
D ||*----------*||
A ||------------||
E ||------------||
Добавить новый гитарный бой
Дата: 21-01-2014, 19:53, Добавил: Aurondel, Раздел: Бетховен Людвиг ван
Информация
Посетители, находящиеся в группе Гости, не могут оставлять комментарии к данной публикации.



Популярные песни
  • Титаник
  • Пираты карибского моря
  • Все бабы суки бабы бляди
  • Над старым аулом
  • Ламбада
  • Солдат (из к/ф Мы из будущего)
  • Мальчишка-наркоман
  • За Родину
  • Девочка не надо слезы лить напрасно
  • Орленок - Звезды


  • Облако тегов
    , 8 марта, Ария, Армия, би-2, блядь, Валерий Скутин, Война, Грусть, Дворовые, ддт, Звери, Измена, Иностранные, интересное, Кино, КиШ, Красиво, Кузя, лагерное, лагерные песни, лагерь, Лирика, Любовь, Любэ, ляпис трубецкой, Многоточие, Наутилус Помпилиус, о жизни, песня, под гитару, Приколы, Разное, Расставание, Сектор газа, Слезы, Сплин, У костра, Чиж и Ко, Школа

    Показать все теги