Войти
Навигация

Мини-чат
Написалzhelinscky
23 октября 2016
привет всем заходите на портал гитаристов akkordmovi.com
Написалzhelinscky
23 октября 2016
всем привет заходите на новый портал гитаристов [leech=http://akkordmovi.com]akko
rdmovi.com[/leech]
НаписалВексель
7 августа 2016
Всем привет
НаписалAragorn
4 апреля 2016
привет
НаписалVurf
1 марта 2016
шалом, бездельники!)
НаписалHohner
8 февраля 2016
https://www.youtube.com/watch?v=9
wG5oHsYkvA
НаписалHohner
8 февраля 2016
smile-03
Написалslaveckii77
24 января 2016
slaveckii77, Я тут))))
Написалslaveckii77
24 января 2016
Где все ??? ЭЭЭ народ?
Написалslaveckii77
24 января 2016
Где все ??? ЭЭЭ народ?

Только зарегистрированные пользователи могут отправлять сообщения.

Наша группа

0-9  A-Z  А  Б  В  Г  Д  Е  Ж  З  И  К  Л  М  Н  О  П  Р  С  Т  У  Ф  Х  Ц  Ч  Ш  Щ  Ю  Я 

Аккорды к песне Бах Иоганн Себастьян - Тетрадь Анны Магдалены Бах - Минуэт в G (2 вариант)

Просмотров: 635, Комментариев: 0
 (голосов: 0)




Транспонировать:
Размер: 3/4 time
Темп: andantino

(Часть 1)

E |------------------|------------------|-0-----------0--2-|
B |-3-----------0--1-|-3----------------|-------1--3-------|
G |-------0--2-------|-------0-----0----|------------------|
D |------------------|------------------|------------------|
A |-------------0----|-2----------------|-3----------------|
E |-3----------------|------------------|------------------|

E |-3-------------|------------------|------------------|
B |---------------|-1-----3--1--0----|-0-----1--0-------|
G |-------0-----0-|----------------2-|-------------2--0-|
D |---------------|------------------|------------------|
A |-2-------------|-0----------------|------------------|
E |---------------|------------------|-3----------------|

E |------------------|------------------|------------------|
B |-------------0----|------------------|-3-----------0--1-|
G |-------0--2-----0-|-4p2--------------|-------0--2-------|
D |-4----------------|-0-----0----------|------------------|
A |-5-----2----------|----------3--2--0-|-2-----------0----|
E |-------------3----|------------------|------------------|

E |------------------|-0-----------0--2-|-3----------------|
B |-3----------------|-------1--3-------|------------------|
G |-------0-----0----|------------------|-------0-----0----|
D |------------------|------------------|------------------|
A |-------2----------|-3----------------|-2-----3--2--0----|
E |-3-----------3----|------------------|----------------3-|

E |------------------|------------------|---------------|-------|
B |-1-----3--1--0----|-0-----1--0-------|----0----------|-0-----|
G |----------------2-|-------------2--0-|-2-----2--0----|-------|
D |------------------|------------------|----0--------4-|-------|
A |-0----------------|-------------2----|-3--------5----|-------|
E |-------------2----|-3----------------|---------------|-3---3-|

(Часть 2)

E |-7-----3--5--7--3-|-5-----------2----|-3-----0--2--3----|
B |------------------|-------3--5-----3-|----------------3-|
G |-0----------------|------------------|-------0----------|
D |------------------|-4----------------|-2-----------2----|
A |------------------|------------------|------------------|
E |------------------|------------------|------------------|

E |---------------|-------------0--2-|-3-----2-----0----|
B |-2-----0h2-----|----0--2--3-------|------------------|
G |-2-----------2-|-2----------------|------------------|
D |---------------|------------------|-------0----------|
A |---------------|-0----------------|-2-----------4----|
E |---------------|------------------|------------------|

E |-2----------------|---------------|------------------|
B |-------------2----|-3-------------|-3----------------|
G |-------2----------|---------------|-------0-----0----|
D |-0----------------|-0-----0-------|-------0--4-------|
A |-------------0----|-------------3-|-2-----------2----|
E |-------2----------|---------------|------------------|

E |-0----------------|------------------|---------------|
B |------------------|-3-----1-----0----|---------------|
G |-------0-----0----|------------------|-2--0-----0--2-|
D |-------2--4-------|------------------|-------4-------|
A |-3-----------3----|-2-----0----------|-5-------------|
E |------------------|-------------3----|---------------|

E |------------------|---------------|---------------|----------|
B |----------------0-|-1-----0-------|-0--3----------|----------|
G |----------0h2-----|-------0-----2-|-0-----0-------|-0--------|
D |-0h2---4----------|-2-----------4-|-------------4-|-----0----|
A |-5----------------|---------------|-------2-----5-|----------|
E |------------------|---------------|---------------|-3------3-|
Добавить новый гитарный бой
Дата: 20-01-2014, 22:55, Добавил: Aurondel, Раздел: Бах Иоган Себастьян
Информация
Посетители, находящиеся в группе Гости, не могут оставлять комментарии к данной публикации.



Популярные песни
  • Титаник
  • Пираты карибского моря
  • Все бабы суки бабы бляди
  • Над старым аулом
  • Ламбада
  • Солдат (из к/ф Мы из будущего)
  • Мальчишка-наркоман
  • За Родину
  • Девочка не надо слезы лить напрасно
  • Орленок - Звезды


  • Облако тегов
    , 8 марта, Ария, Армия, би-2, блядь, Война, гитара, Грусть, Дворовые, ддт, Звери, Измена, Иностранные, интересное, Кино, КиШ, Красиво, Кузя, лагерное, лагерные песни, лагерь, Лирика, Любовь, Любэ, Многоточие, Море, Наутилус Помпилиус, о жизни, песня, под гитару, Приколы, Разное, Расставание, Сектор газа, Слезы, Сплин, У костра, Чиж и Ко, Школа

    Показать все теги