Войти
Навигация

Мини-чат
Написалzhelinscky
привет всем заходите на портал гитаристов akkordmovi.com
Написалzhelinscky
всем привет заходите на новый портал гитаристов [leech=http://akkordmovi.com]akko
rdmovi.com[/leech]
НаписалВексель
Всем привет
НаписалAragorn
привет
НаписалVurf
шалом, бездельники!)
НаписалHohner
https://www.youtube.com/watch?v=9
wG5oHsYkvA
Написалslaveckii77
slaveckii77, Я тут))))
Написалslaveckii77
Где все ??? ЭЭЭ народ?
Написалslaveckii77
Где все ??? ЭЭЭ народ?

Только зарегистрированные пользователи могут отправлять сообщения.

Наша группа

0-9  A-Z  А  Б  В  Г  Д  Е  Ж  З  И  К  Л  М  Н  О  П  Р  С  Т  У  Ф  Х  Ц  Ч  Ш  Щ  Ю  Я 

Аккорды к песне Би-2 - Полковнику никто не пишет (2 вариант)

Просмотров: 1866, Комментариев: 0
 (голосов: 0)




Транспонировать:
1|--6------5-------------------6------5---------|
2|-------------------6-4--4-6-------------------|
3|----7-7---7-7--7---------------8-8--8-8--8-7--|
4|----------------------------------------------|
5|----------------------------------------------|
6|----------------------------------------------|

G
Большие города
D#
Пустые поезда
C
Ни берега, ни дна
D
Всё начинать сначала
Холодная война
И время как вода
Он не сошел с ума
Ты ничего не знала

Припев:
G D#
Полковнику никто не пишет
1|--------------------------------------|
2|--------------------------------------|
3|-----5-3------------------------------|
4|---5-----5------------------8-8--8-8--|
5|-5---------5--5-6-5--8-6--6-6--6-6----|
6|--------------------------------------|
G F
Полковника никто не ждет
1|-----------------------------6-6-5--6-6-5--|
2|-------------------------------------------|
3|-----5-3-----------------------------------|
4|---5-----5---------------------------------|
5|-5---------5--5-6-5--8-6-------------------|
6|-------------------------------------------|

На линии огня
Пустые города
В которых никогда
Ты раньше не бывала
И рвутся поезда
На тонкие слова
Он не сошел с ума
Ты ничего не знала

Solo (могут быть ошибки)
1|-----6----5--6-8-10-----6-----5--6-8-6------6----5--6-8-10---|
2|-4-6--4-6---4-6--8--4-6--4-6----4-6-6--4-6--4-6---4-6--8-10--|
3|-------------------------------------------------------------|
4|-------------------------------------------------------------|
5|-------------------------------------------------------------|
6|-------------------------------------------------------------|

1|--6------5-------------------6------5------------------------|
2|-------------------6-4--4-6----------------------------------|
3|----7-7---7-7--7---------------8-8--8-8--8-7(slide to 19)----|
4|-------------------------------------------------------------|
5|-------------------------------------------------------------|
6|-------------------------------------------------------------|

Припев.

Solo
1|--------------------------------------------|
2|--------------------------------------------|
3|--------------------------------------------|
4|-------------------10--------------10-------|
5|-----12-13-12-13------12-13-12-13-----------|
6|--10-----------------10---------------------|

1|--------------------------------------------|
2|--------------------------------------------|
3|--------------------------------------------| x4
4|-----------10----------15-13-12-10-12-------|
5|----12-13----13-12---------------------12---|
6|-10-----------------------------------------|
Добавить новый гитарный бой
Дата: 23-06-2013, 18:32, Добавил: Aurondel, Раздел: Би-2
Информация
Посетители, находящиеся в группе Гости, не могут оставлять комментарии к данной публикации.



Популярные песни
  • Титаник
  • Пираты карибского моря
  • Все бабы суки бабы бляди
  • Над старым аулом
  • Ламбада
  • Солдат (из к/ф Мы из будущего)
  • Мальчишка-наркоман
  • За Родину
  • Девочка не надо слезы лить напрасно
  • Орленок - Звезды


  • Облако тегов
    , 8 марта, Ария, Армия, би-2, блядь, Война, гитара, Грусть, Дворовые, ддт, Звери, Измена, Иностранные, интересное, Кино, КиШ, Красиво, Кузя, лагерное, лагерные песни, лагерь, Лирика, Любовь, Любэ, Многоточие, Море, Наутилус Помпилиус, о жизни, песня, под гитару, Приколы, Разное, Расставание, Сектор газа, Слезы, Сплин, У костра, Чиж и Ко, Школа

    Показать все теги