Войти
Навигация

Мини-чат
Написалzhelinscky
23 октября 2016
привет всем заходите на портал гитаристов akkordmovi.com
Написалzhelinscky
23 октября 2016
всем привет заходите на новый портал гитаристов [leech=http://akkordmovi.com]akko
rdmovi.com[/leech]
НаписалВексель
7 августа 2016
Всем привет
НаписалAragorn
4 апреля 2016
привет
НаписалVurf
1 марта 2016
шалом, бездельники!)
НаписалHohner
8 февраля 2016
https://www.youtube.com/watch?v=9
wG5oHsYkvA
НаписалHohner
8 февраля 2016
smile-03
Написалslaveckii77
24 января 2016
slaveckii77, Я тут))))
Написалslaveckii77
24 января 2016
Где все ??? ЭЭЭ народ?
Написалslaveckii77
24 января 2016
Где все ??? ЭЭЭ народ?

Только зарегистрированные пользователи могут отправлять сообщения.

Наша группа

0-9  A-Z  А  Б  В  Г  Д  Е  Ж  З  И  К  Л  М  Н  О  П  Р  С  Т  У  Ф  Х  Ц  Ч  Ш  Щ  Ю  Я 

Аккорды к песне Бони неМ - Яблоки на снегу (2-й вариант)

Просмотров: 1036, Комментариев: 0
 (голосов: 0)




Транспонировать:
DISTORSION:
D |----3---5---3---5---------8--------5-|
A |----3---5---3---5---------8--------5-|
E |----1---3---1---3---------6--------3-|

G |----------------------5------------|
D |----5----------------------------5-|
A |----5----------------------------3-|
E |----3------------------------------|
Яблоки на снегу, розовое на белом!

G |-----------3-------------|
D |----3------------------3-|
A |----3------------------1-|
E |----1--------------------|
Что же нам с ними делать...

G |----5------------------|
D |----5----------------7-|
A |----3----------------5-|
E |---------5-------------|
С яблоками на снегу!

A |--3--5-6-5----3--5-6-5----3--5-6-5----3--5-6-5--|
Й-Я-А-А-Аблоки на снегу

G |------|
D |----5-|
A |----5-|
E |----3-|
Яблоки на снегу

G |----5-------------------|
D |----5------------7----5-|
A |----3------------5----5-|
E |-----5----3-------------|
Что же нам с ними делать

G |----5-----------------|
D |----5---------7-----5-|
A |----3---------5-----5-|
E |-5-----3--------------|
С яблоками на снегу
Добавить новый гитарный бой
Дата: 19-06-2013, 11:45, Добавил: Aurondel, Раздел: Бони неМ
Информация
Посетители, находящиеся в группе Гости, не могут оставлять комментарии к данной публикации.



Популярные песни
  • Титаник
  • Пираты карибского моря
  • Все бабы суки бабы бляди
  • Над старым аулом
  • Ламбада
  • Солдат (из к/ф Мы из будущего)
  • Мальчишка-наркоман
  • За Родину
  • Девочка не надо слезы лить напрасно
  • Орленок - Звезды


  • Облако тегов
    , 8 марта, Ария, Армия, би-2, блядь, Война, гитарное, Гражданская оборона, Грусть, Дворовые, ддт, Звери, Измена, Иностранные, интересное, Кино, КиШ, Красиво, Кузя, лагерное, лагерь, Лирика, Любовь, Любэ, ляпис, Многоточие, Наутилус Помпилиус, о жизни, песня, под гитару, Приколы, Разное, Расставание, Сектор газа, Слезы, Сплин, У костра, Чиж и Ко, Школа

    Показать все теги