Войти
Навигация

Мини-чат
Написалzhelinscky
23 октября 2016
привет всем заходите на портал гитаристов akkordmovi.com
Написалzhelinscky
23 октября 2016
всем привет заходите на новый портал гитаристов [leech=http://akkordmovi.com]akko
rdmovi.com[/leech]
НаписалВексель
7 августа 2016
Всем привет
НаписалAragorn
4 апреля 2016
привет
НаписалVurf
1 марта 2016
шалом, бездельники!)
НаписалHohner
8 февраля 2016
https://www.youtube.com/watch?v=9
wG5oHsYkvA
НаписалHohner
8 февраля 2016
smile-03
Написалslaveckii77
24 января 2016
slaveckii77, Я тут))))
Написалslaveckii77
24 января 2016
Где все ??? ЭЭЭ народ?
Написалslaveckii77
24 января 2016
Где все ??? ЭЭЭ народ?

Только зарегистрированные пользователи могут отправлять сообщения.

Наша группа

0-9  A-Z  А  Б  В  Г  Д  Е  Ж  З  И  К  Л  М  Н  О  П  Р  С  Т  У  Ф  Х  Ц  Ч  Ш  Щ  Ю  Я 

Аккорды к песне Ария - Тореро (5-й вариант)

Просмотров: 737, Комментариев: 0
 (голосов: 0)




Транспонировать:
Intro:

I?m not shure in this chords.

E |------------|-------------0-|---------------|---------------|
H |----------4-|----------3----|-------------3-|---------------|
G |-------6----|---------------|----------4----|-5-5-5-5--5--5-|
D |-----0------|-------1-------|-------0-------|-5-5-5-5--5--5-|
A |---2--------|----3----------|----3----------|-3-3-3-3--3--3-|
E |-3----------|-4-------------|-1-------------|---------------|

Then next and then this line with riff 1.

E |-------------|----------------|----------------|-------------|
H |-------------|----------------|----------------|-------------|
G |-------------|----------------|----------------|-------------|
D |-------------|----------------|----------------|-------------|
A |-3-5-6-3-5-6-|------5-------5-|------3-------3-|-------------|
E |-------------|-6-8-----6-8----|-4-6-----4--6---|-3-4-3-4-3-6-|

Riff 1

E |-------------|-----------|------------------|----------------|
H |-------------|-----------|------------------|----------------|
G |-------------|-----------|------------------|----------------|
D |-----------5-|--3--------|--3---------------|----------------|
A |--3--5--6----|-----5-----|-----6--3---------|----3-6-5-------|
E |-------------|--------6--|-----------4------|--4--------6--3-|

Next line one guitar play with chords below tablature:

Riff 2
G#5 D#5 D5 C5 G5
E |-----------------------|--------------------------------|
B |------------4--3-------|--------------------------------|
G |-------------------5---|--(5)---------------------------|
D |---6---3--6------------|------5-----5-----5-----5-----5-|
A |-----------------------|------5-----5-----5-----5-----5-|
E |-----------------------|--3-3-3-3-3-3-3-3-3-3-3-3-3-3-3-|

G#5 D#5 D5 C5 G5
E |-----------------------|-----|
H |-------------4--3------|-----|
G |-------------------5---|--12-|
D |---6---3--6------------|-----|
A |-----------------------|-----|
E |-----------------------|-----|

Then C5 8x4=32

I verse

gtr. 1 - tablature
gtr. 2 - chords below tab

C5 8x B5 8x G#5 8x G5 8x
E |--------|--------|--------|-------|----------|
H |--------|--------|--------|-------|----------| Play this line
G |--5-----|--3-----|--------|-------|----------| 2 times
D |--5-----|--3-----|--6-----|-------|---5----5-|
A |--------|--------|--6-----|--5----|---5----5-|
E |--------|--------|--------|--5----|-3-3--3-3-|
gtr. 2 /

Chorus:

Play riff 2 and step to next line.

C5 A#5 G#5 G5
E |-----------|-----|-------------|---------|---|---------------|
H |-----------|-----|-------------|---------|---|---------------|
G |--5-5-5-5--|--3--|-------------|---------|---|---------------|
D |--5-5-5-5--|--3--|-8-7-8-7-8-7-|-6-6-6-6-|-5-|---5-4-5-4-5-4-|
A |-----------|-----|-6-5-6-5-6-5-|-6-6-6-6-|-5-|---3-2-3-2-3-2-|
E |-----------|-----|---gtr.2--/--|---------|---|-----gtr.2--/--|

E |-------------------------------------------------------------|
H |-------------------------------------------------------------|
G |-------------------------------------------------------------|
D |-3-3-3-3-3-3-3-3-3-3-3-3-3-3-6-6-6-6-6-6-6-6-6-6-6-6-6-6-6-6-|
A |-3-3-3-3-3-3-3-3-3-3-3-3-3-3-6-6-6-6-6-6-6-6-6-6-6-6-6-6-6-6-|
E |-1-1-1-1-1-1-1-1-1-1-1-1-1-1-4-4-4-4-4-4-4-4-4-4-4-4-4-4-4-4-|
16 x / 16 x /

E |--------------------------------|
H |--------------------------------|
G |--------------------------------|
D |---------------------------5--5-|
A |---3--2-----5--3--2--3--2-------|
E |---------3----------------------|

II verse as I verse

Chorus and 6 times C5

After that play riff 2 and goto solo.

Solo :

E |-------------------/18--20-----------------13-------------|
H |-13~~---11~~-----------------15--15---16------16--15------|
G |-------------------------------------------------------12-|
D |----------------------------------------------------------|
A |----------------------------------------------------------|
E |----------------------------------------------------------|

E |----------------------------|
H |----------------------------|
G |---12h13h15--13--12---------|
D |---------------------15--13-|
A |----------------------------|
E |----------------------------|

III Verse.

Chorus and outro.

Outro:
rit.
E |-------------------------------------------------------------|
H |-------------------------------------------------------------|
G |-0-4-0-4-0-5-0-5-0-7-0-7-0-8-0-8-0-10-0-10-0-11-0-11-0-12~~~-|
D |-------------------------------------------------------------|
A |-------------------------------------------------------------|
E |-------------------------------------------------------------|

C5
E |--------------------------|
H |--------------------------|
G |--------------------------|
D |--10-10-10-10----10----10-|
A |--10-10-10-10----10----10-|
E |---8--8--8--8-----8-----8-|

The end

Lyrics:

Эй, тореро, жизнь как миг.
Опять звучит трубы призывный зов.
Эй, тореро, ты или бык?
Качается чаша весов.

Бог хранит тебя, смерть щадит тебя.
Неба белый платок, кровь и желтый песок
Крик отчаянья, бык живая мишень.
Под восторженный вой ты играешь судьбой
Пусть не знает никто, что творится в душе.
Добавить новый гитарный бой
Дата: 2-03-2013, 22:04, Добавил: Aurondel, Раздел: Ария
Информация
Посетители, находящиеся в группе Гости, не могут оставлять комментарии к данной публикации.



Популярные песни
  • Титаник
  • Пираты карибского моря
  • Все бабы суки бабы бляди
  • Над старым аулом
  • Ламбада
  • Солдат (из к/ф Мы из будущего)
  • Мальчишка-наркоман
  • За Родину
  • Девочка не надо слезы лить напрасно
  • Орленок - Звезды


  • Облако тегов
    , 8 марта, Ария, Армия, би-2, блядь, Война, гитарное, Гражданская оборона, Грусть, Дворовые, ддт, Звери, Измена, Иностранные, интересное, Кино, КиШ, Красиво, Кузя, лагерное, лагерь, Лирика, Любовь, Любэ, ляпис, Многоточие, Наутилус Помпилиус, о жизни, песня, под гитару, Приколы, Разное, Расставание, Сектор газа, Слезы, Сплин, У костра, Чиж и Ко, Школа

    Показать все теги