Войти
Навигация

Мини-чат
Написалzhelinscky
23 октября 2016
привет всем заходите на портал гитаристов akkordmovi.com
Написалzhelinscky
23 октября 2016
всем привет заходите на новый портал гитаристов [leech=http://akkordmovi.com]akko
rdmovi.com[/leech]
НаписалВексель
7 августа 2016
Всем привет
НаписалAragorn
4 апреля 2016
привет
НаписалVurf
1 марта 2016
шалом, бездельники!)
НаписалHohner
8 февраля 2016
https://www.youtube.com/watch?v=9
wG5oHsYkvA
НаписалHohner
8 февраля 2016
smile-03
Написалslaveckii77
24 января 2016
slaveckii77, Я тут))))
Написалslaveckii77
24 января 2016
Где все ??? ЭЭЭ народ?
Написалslaveckii77
24 января 2016
Где все ??? ЭЭЭ народ?

Только зарегистрированные пользователи могут отправлять сообщения.

Наша группа

0-9  A-Z  А  Б  В  Г  Д  Е  Ж  З  И  К  Л  М  Н  О  П  Р  С  Т  У  Ф  Х  Ц  Ч  Ш  Щ  Ю  Я 

Аккорды к песне Ария - Тореро (3-й вариант)

Просмотров: 1274, Комментариев: 0
 (голосов: 0)




Транспонировать:
Вступление и проигрыш после каждого куплета:
----------------------------------------------------------------
----------------------------------------------------------------
----------------------------------------------------------------
--------------------------------------------------9-7-----7-5---
79107-9-10-5-7-95-7-9-3-5-7-3-5-72-3-2-3-2-7-9-10---0-9-5-0--7-3
0----------0----------0----------0---------0--------------------

----------------------------------------------------------------
----------------------------------------------------------------
--------------------7-6-4---------------------7-6-4-------------
-----2-5-4------5---5---------------------5---5-------9-9-9-----
-3-------5-2----7---------9-9-9-10-7-9----7---------7-7-7-------
-----------0--------------7-7-7---------------------0-0-0-------

Эй, тореро, жизнь как миг
Опять звучит трубы призывный зов
Эй, тореро, ты или бык
Качается чаша весов
Бог хранит тебя
Смерть щадит тебя--а--

Неба белый платок
Кровь и желтый песок
Крик отчаянья бык живая мишень
Под восторженный вой
Ты играешь судьбой
Пусть не знает никто что творится в душе

Эй, тореро, сын вдовы
Твой красный плащ твой траурный покров
Эй, тореро, ты будешь убит
Под песню мадридских часов
Бог хранит тебя
Смерть щадит тебя-а-

Неба белый платок
Кровь и желтый песок
Крик отчаянья бык живая мишень
Под восторженный вой
Ты играешь собой
Пусть не знает никто что творится в душе

Добавить новый гитарный бой
Дата: 1-03-2013, 13:15, Добавил: Aurondel, Раздел: Ария
Информация
Посетители, находящиеся в группе Гости, не могут оставлять комментарии к данной публикации.



Популярные песни
  • Титаник
  • Пираты карибского моря
  • Все бабы суки бабы бляди
  • Над старым аулом
  • Ламбада
  • Солдат (из к/ф Мы из будущего)
  • Мальчишка-наркоман
  • За Родину
  • Девочка не надо слезы лить напрасно
  • Орленок - Звезды


  • Облако тегов
    , 8 марта, Ария, Армия, би-2, блядь, Война, гитара, Грусть, Дворовые, ддт, Звери, Измена, Иностранные, интересное, Кино, КиШ, Красиво, Кузя, лагерное, лагерные песни, лагерь, Лирика, Любовь, Любэ, Многоточие, Море, Наутилус Помпилиус, о жизни, песня, под гитару, Приколы, Разное, Расставание, Сектор газа, Слезы, Сплин, У костра, Чиж и Ко, Школа

    Показать все теги