Войти
Навигация

Мини-чат
Написалzhelinscky
23 октября 2016
привет всем заходите на портал гитаристов akkordmovi.com
Написалzhelinscky
23 октября 2016
всем привет заходите на новый портал гитаристов [leech=http://akkordmovi.com]akko
rdmovi.com[/leech]
НаписалВексель
7 августа 2016
Всем привет
НаписалAragorn
4 апреля 2016
привет
НаписалVurf
1 марта 2016
шалом, бездельники!)
НаписалHohner
8 февраля 2016
https://www.youtube.com/watch?v=9
wG5oHsYkvA
НаписалHohner
8 февраля 2016
smile-03
Написалslaveckii77
24 января 2016
slaveckii77, Я тут))))
Написалslaveckii77
24 января 2016
Где все ??? ЭЭЭ народ?
Написалslaveckii77
24 января 2016
Где все ??? ЭЭЭ народ?

Только зарегистрированные пользователи могут отправлять сообщения.

Наша группа

0-9  A-Z  А  Б  В  Г  Д  Е  Ж  З  И  К  Л  М  Н  О  П  Р  С  Т  У  Ф  Х  Ц  Ч  Ш  Щ  Ю  Я 

Аккорды к песне Ария - Паранойя (2-й вариант)

Просмотров: 707, Комментариев: 0
 (голосов: 0)




Транспонировать:
E |-4-4-4-4-2p0-4-4-4-2-0----------4-4-4-2-4-4/5-4p2------------|
B |5----------------------4-4/5--2-------------------5p3-3p2-2p0|

G |--------------4----------------------------------------------|
E |--4-4-4-4-2p0-7-7-7-7-9-7-5/7-4-4-4-4-2-4-4/5-4p2------------|
B |5-------------------------------------------------5p3-3p2p0--|
G |------------------------------------------------------------2|

Intro: Em

D |----------5------| 4|-----------------|
A |-5--5-7-7---7-7--| 3 times 5|-7--8-7-5-7-5----|
E |-----------------| 6|--------------7--|

D |----------5------| 4|-----------------|
A |-5--5-7-7---7-7--| 3 times 5|-7--8-7-5-7------|
E |-----------------| 6|-----------------|

Em
Я работал как волк, но не выл на Луну
Каждый день я привык уходить на войну -
D
Здесь воюют всегда
Em riff1
За кресты, за звезды и за воздух

riff1
D |------------------|
A |-7--8-7-5-7-5-----|
E |--------------7-5-|

В этой пьяной стране есть для каждого кнут
Здесь поют о душе и в нее же плюют
Как назло, как назло, как назло
Я понял слишком поздно...

Chorus:

H riff2 C
Эта жизнь не для белых
H riff3 C
Эта жизнь не для черных, нет
H riff4 C H
Эта жизнь без надежды на просвет!

riff2 riff3 riff4
E |---------------| 1|-----------------| 1|-------------------7-|
B |-7-7-7-5-7-8-8-| 2|-7-7-7-5-7-8-8-8-| 2|-7-7-7-5-7-8-8-7-8---|
G |---------------| 3|-----------------| 3|---------------------|

Em H
Где-то любовь светла
C#m
Где-то вода чиста
D
И не стучится в дверь беда
Где-то покой и свет
Но только нас там нет
Нам не бывать там никогда

Intro.

У подруги моей тоже собственный ад
Но там нет ничего: ни чертей ни огня
Только страх темноты
И случайной встречи с незнакомцем
Он высок, он жесток, он полночный маньяк
У него сто имен на газетных листах
Он везде, он везде, он везде
Как только сядет солнце...

Chorus.
Intro.

Я вчера видел крыс - завтра грянет чума
И пойдет пировать, поджигая дома
Всем раздаст по кресту
И на Страшный Суд отправит строем
А сегодня все пьют, чтоб не выть на Луну
Пир во время чумы, кто есть кто не пойму
Я бегу чтобы жить
А вокруг ликует паранойя


Добавить новый гитарный бой
Дата: 23-02-2013, 10:03, Добавил: Aurondel, Раздел: Ария
Информация
Посетители, находящиеся в группе Гости, не могут оставлять комментарии к данной публикации.



Популярные песни
  • Титаник
  • Пираты карибского моря
  • Все бабы суки бабы бляди
  • Над старым аулом
  • Ламбада
  • Солдат (из к/ф Мы из будущего)
  • Мальчишка-наркоман
  • За Родину
  • Девочка не надо слезы лить напрасно
  • Орленок - Звезды


  • Облако тегов
    , 8 марта, Ария, Армия, би-2, блядь, Война, гитара, Грусть, Дворовые, ддт, Звери, Измена, Иностранные, интересное, Кино, КиШ, Красиво, Кузя, лагерное, лагерные песни, лагерь, Лирика, Любовь, Любэ, Многоточие, Море, Наутилус Помпилиус, о жизни, песня, под гитару, Приколы, Разное, Расставание, Сектор газа, Слезы, Сплин, У костра, Чиж и Ко, Школа

    Показать все теги