Войти
Навигация

Мини-чат
Написалzhelinscky
23 октября 2016
привет всем заходите на портал гитаристов akkordmovi.com
Написалzhelinscky
23 октября 2016
всем привет заходите на новый портал гитаристов [leech=http://akkordmovi.com]akko
rdmovi.com[/leech]
НаписалВексель
7 августа 2016
Всем привет
НаписалAragorn
4 апреля 2016
привет
НаписалVurf
1 марта 2016
шалом, бездельники!)
НаписалHohner
8 февраля 2016
https://www.youtube.com/watch?v=9
wG5oHsYkvA
НаписалHohner
8 февраля 2016
smile-03
Написалslaveckii77
24 января 2016
slaveckii77, Я тут))))
Написалslaveckii77
24 января 2016
Где все ??? ЭЭЭ народ?
Написалslaveckii77
24 января 2016
Где все ??? ЭЭЭ народ?

Только зарегистрированные пользователи могут отправлять сообщения.

Наша группа

0-9  A-Z  А  Б  В  Г  Д  Е  Ж  З  И  К  Л  М  Н  О  П  Р  С  Т  У  Ф  Х  Ц  Ч  Ш  Щ  Ю  Я 

Аккорды к песне Ария - Ночь в июле (2-й вариант)

Просмотров: 612, Комментариев: 0
 (голосов: 0)




Транспонировать:
Intro

00:30
E |------------------0-----------------|
B |----5-6-8-6-5-1-----1^3^1-----------|
G |----------------2---------2-4-4-5-5-|
D |----------------0-------------------|
A |----------------------------------3-|
E |-8------6---5---------------3-------|

E |--------------------0---------|
B |-5-6-8^10^8-6-5-1-----1^3^1---|
G |------------------2---------2-|
D |------------------0-----------|
A |--------------3---------------|
E |--------6-------5-------------|

E |----------------------0---------------|
B |----------5-6-8-6-5-1-----1-3-3-------|
G |-4-5420-5---------------2-------4-2-5-|
D |----------------------3---------------|
A |--------3---------5-----------------3-|
E |-3------------6---------------3-------|

E |--------------------0---------|
B |-5-6-8^10^8-6-5-1-----1^3^1---|
G |------------------2---------2-|
D |------------------0-----------|
A |--------------5---------------|
E |--------6---------------------|

E |--------------0-8--12-|
B |----------------10-13-|
G |-4-5420-5-0-2---------|
D |----------------------|
A |--------3-----3-------|
E |-3--------------------|

Ты уходишь прочь из дома
В час, когда все крепко спят,
По дороге мне знакомой
От рассвета на закат.

ПР.Ночь в июле полна соблазнов,
И мятежна ночная даль.
Свыше путь тебе указан,
Знает бог один куда...

Слишком много было фальши,
Несвободы и вранья.
Ангел мой, так будет дальше,
Но беги, беги пока.

Знаю, встретишь незнакомца,
Сердце вздрогнет и замрет.
В новой клетке будет солнце,
Но никто от боли не спасет.

Я и сам мечтал когда-то
Раскачать безумный этот мир,
Но умчалось все куда-то,
Все прошло, как с белых яблонь дым,
Но, а ты беги пока
свободна и легка...

ПР.Ночь в июле полна соблазнов,
И мятежна ночная даль.
Свыше путь тебе указан,
Знает бог один куда...

E |-----------------------------------------------------------|
B |-17-18-20-18-17^18^17-13-----17-18-20-18-17^18^17-13----13-|
G |-------------------------14--------------------------14----|
D |-----------------------------------------------------------|
A |-----------------------------------------------------------|
E |-----------------------------------------------------------|
Добавить новый гитарный бой
Дата: 22-02-2013, 15:52, Добавил: Aurondel, Раздел: Ария
Информация
Посетители, находящиеся в группе Гости, не могут оставлять комментарии к данной публикации.



Популярные песни
  • Титаник
  • Пираты карибского моря
  • Все бабы суки бабы бляди
  • Над старым аулом
  • Ламбада
  • Солдат (из к/ф Мы из будущего)
  • Мальчишка-наркоман
  • За Родину
  • Девочка не надо слезы лить напрасно
  • Орленок - Звезды


  • Облако тегов
    , 8 марта, Ария, Армия, би-2, блядь, Валерий Скутин, Война, Грусть, Дворовые, ддт, Звери, Измена, Иностранные, интересное, Кино, КиШ, Красиво, Кузя, лагерное, лагерь, Лирика, Любовь, Любэ, ляпис трубецкой, Многоточие, Наутилус Помпилиус, о жизни, песни, песня, под гитару, Приколы, Разное, Расставание, Сектор газа, Слезы, Сплин, У костра, Чиж и Ко, Школа

    Показать все теги