Войти
Навигация

Мини-чат
Написалzhelinscky
привет всем заходите на портал гитаристов akkordmovi.com
Написалzhelinscky
всем привет заходите на новый портал гитаристов [leech=http://akkordmovi.com]akko
rdmovi.com[/leech]
НаписалВексель
Всем привет
НаписалAragorn
привет
НаписалVurf
шалом, бездельники!)
НаписалHohner
https://www.youtube.com/watch?v=9
wG5oHsYkvA
Написалslaveckii77
slaveckii77, Я тут))))
Написалslaveckii77
Где все ??? ЭЭЭ народ?
Написалslaveckii77
Где все ??? ЭЭЭ народ?

Только зарегистрированные пользователи могут отправлять сообщения.

Наша группа

0-9  A-Z  А  Б  В  Г  Д  Е  Ж  З  И  К  Л  М  Н  О  П  Р  С  Т  У  Ф  Х  Ц  Ч  Ш  Щ  Ю  Я 

Аккорды к песне Flёur – Зафиксировать вечность (2 вариант)

Просмотров: 1794, Комментариев: 0
 (голосов: 0)




Транспонировать:
Intro/Bridge 1:

E -||---------0-------|-----------------|---------0-------|-------4----------||
B -||-----------3-----|-------0---------|-----------3-----|-----3---5--------||
G -||-------4-----4---|---------1-------|-------4-----4---|---4-------------*||
D -||-----4---------4-|-----2-----------|-----4---------4-|-0---------------*||
A -||-2---------------|---2-----------0-|-2---------------|---------------0--||
E -||-----------------|-0---------------|-----------------|------------------||


Куплет:

E -|---------0-------|---------0-------|---------0-------|---------0-------|
B -|-----------3-----|----------(0)----|-----------3-----|-------3---3-----|
G -|-------4-----4---|-------1-----1---|-------4-----4---|-----4-------4---|
D -|-----4---------4-|-----2---------2-|-----4---------4-|-5-------------0-|
A -|-2---------------|---2-------------|-2---------------|-----------------|
E -|-----------------|-0---------------|-----------------|-----------------|


E -|---------0-------|---------0-------|---------2-------|---------4-------|
B -|-----------3-----|-----------0-----|-------3---3-----|-------5---5-----|
G -|-------4-----4---|-------1-----1---|-----2-------2---|-----4-------4---|
D -|-----4---------4-|-----2---------2-|-0---------------|-0---------------|
A -|-2---------------|--(2)------------|-----------------|-----------------|
E -|-----------------|-0---------------|-----------------|-----------------|


Bridge 2:

E Em


Припев:

Em
Ты подбросил камеру в воздух
F#7
И она снимает звёзды
Am
И она снимает небо
Fmaj7
Ты так хотел зафиксировать вечность
Добавить новый гитарный бой
Дата: 21-12-2012, 13:07, Добавил: Aurondel, Раздел: Flёur
Информация
Посетители, находящиеся в группе Гости, не могут оставлять комментарии к данной публикации.



Популярные песни
  • Титаник
  • Пираты карибского моря
  • Все бабы суки бабы бляди
  • Над старым аулом
  • Ламбада
  • Солдат (из к/ф Мы из будущего)
  • Мальчишка-наркоман
  • За Родину
  • Девочка не надо слезы лить напрасно
  • Орленок - Звезды


  • Облако тегов
    , 8 марта, Ария, Армия, би-2, блядь, Война, гитарное, Гражданская оборона, Грусть, Дворовые, ддт, Звери, Измена, Иностранные, интересное, Кино, КиШ, Красиво, Кузя, лагерное, лагерь, Лирика, Любовь, Любэ, ляпис, Многоточие, Наутилус Помпилиус, о жизни, песня, под гитару, Приколы, Разное, Расставание, Сектор газа, Слезы, Сплин, У костра, Чиж и Ко, Школа

    Показать все теги