Войти
Навигация

Наша группа

0-9  A-Z  А  Б  В  Г  Д  Е  Ж  З  И  К  Л  М  Н  О  П  Р  С  Т  У  Ф  Х  Ц  Ч  Ш  Щ  Ю  Я 

Просмотров: 82, Комментариев: 0
RIFF
(e) |------10----------12~~~~--&-----|------|
( B ) |---12----10---------------&-10--|--12--|
( G ) |------------12-9----------&-----|------|
( D ) |--------------------------&-----|------|
( A ) |--------------------------&-----|------|
( E ) |--------------------------&-----|------|
1 2 3 4 1
Дата: 8-12-2016, 16:02, Добавил: Aurondel, Раздел: Иностранные
Просмотров: 169, Комментариев: 0
E ||-------------------|---------------0-------|----0------------------|
B ||-------------------|--2-------0---------2--|------------0----------|
G ||-------------------|--2-------1---------2--|------------1----------|
D ||-------------------|-----------------------|-----------------------|
A ||----------------0--|-------0------------0--|---------0-------------|
E ||-------------------|-----------------------|-----------------0--0--|
Дата: 7-12-2016, 13:03, Добавил: Aurondel, Раздел: Иностранные
Просмотров: 157, Комментариев: 0
Main riff (played during intro & chorus):

G C Dm C
|---3--3----3--3---------5--5-----------------|
|---3--3----3--3----5----6--6----5--5---------|
|---4--4----4--4----5----7--7----5--5---------|
|---5--5----5--5----5----7--7----5--5---------|
|---5--5----5--5----3----5--5----3--3---------|
|---3--3----3--3------------------------------|
Дата: 7-12-2016, 12:31, Добавил: Aurondel, Раздел: Иностранные
Просмотров: 136, Комментариев: 0
C F C C7
I got the Blues from my baby livin by the San Francisco bay,
F C C7
The ocean-liner not so far away.
F
I didn't mean it treat her so bad,
C A7
She was the best girl I ever ever had.
Дата: 7-12-2016, 12:03, Добавил: Aurondel, Раздел: Иностранные
Просмотров: 120, Комментариев: 0
Intro
E |-----------------------------------/10-----------------|
B |-(8)/12~~-⁄10~--⁄8~~----8--------------12--------------|
G |---------------------/9---9--7------------12~~-12~/9~~-|
D |-------------------------------9~~---------------------|
A |-------------------------------------------------------|
E |-------------------------------------------------------|
Дата: 7-12-2016, 11:57, Добавил: Aurondel, Раздел: Иностранные
Просмотров: 154, Комментариев: 0
[ G ]Lately I've been [ D/F# ]running on [ Em ]faith [ D/F# ]
[ G ]What else can a [ D/F# ]poor boy [ Em ]do [ G7 ]
But my [ C ]world will be right [ D ]
When Love comes over [ G ]me [ C ] [ D ] [ D7 ]
Дата: 7-12-2016, 11:32, Добавил: Aurondel, Раздел: Иностранные
Просмотров: 159, Комментариев: 0
Intro/Chorus:

C G
|--/-12--⁄-8-----3--2--3--2--1-------------|
|-------------------------------3--0-------|
|------^-----------------------------------| (play twice)
|----slide---------------------------------|
|----guitar--------------------------------|
|------------------------------------------|
Дата: 7-12-2016, 11:03, Добавил: Aurondel, Раздел: Иностранные


Популярные песни
  • Титаник
  • Пираты карибского моря
  • Все бабы суки бабы бляди
  • Над старым аулом
  • Ламбада
  • Солдат (из к/ф Мы из будущего)
  • Мальчишка-наркоман
  • За Родину
  • Девочка не надо слезы лить напрасно
  • Орленок - Звезды


  • Облако тегов
    , 8 марта, Noize MC, Агата Кристи, Ария, Армия, би-2, блядь, Война, Грусть, Дворовые, ддт, Звери, Измена, Иностранные, интересное, Кино, КиШ, Красиво, Кузя, лагерное, лагерь, Лирика, Любовь, Любэ, Мельница, Многоточие, Наутилус Помпилиус, о жизни, песня, под гитару, Приколы, Разное, Расставание, Сектор газа, Слезы, Сплин, У костра, Чиж и Ко, Школа

    Показать все теги