Войти
Навигация

Наша группа

0-9  A-Z  А  Б  В  Г  Д  Е  Ж  З  И  К  Л  М  Н  О  П  Р  С  Т  У  Ф  Х  Ц  Ч  Ш  Щ  Ю  Я 

Просмотров: 124, Комментариев: 0
TUNING: E B E G# B E

E (w RIFF)
Go down easy and let me take my time
A E (w RIFF)
Go down easy and let me take my time
G F# F E (w RIFF)
Rock me slow till I lose my mind
Дата: 7-12-2016, 10:47, Добавил: Aurondel, Раздел: Иностранные
Просмотров: 166, Комментариев: 0
C F
E ----------0--------I---------0-------I--------1--------I-------1---------I
B --------1-------1--I------1------1---I-----1-------1---I-----1-----1-3---I
G ------0-------0----I----0------0-----I---2-------2-----I---2-------------I
D -------------------I-----------------I-----------------I-----------------I
A ---3---------------I-3---------------I-----------------I-----------------I
E -------------------I-----------------I-1---------------I-1---------------I
Дата: 6-12-2016, 22:13, Добавил: Aurondel, Раздел: Иностранные
Просмотров: 148, Комментариев: 0
You need the following chords: E7 - A7 - B7 (|-|V-V)

The main chord progression is (12 bar quick change Blues)

E7 - A7 - E7 - E7
A7 - A7 - E7 - E7
B7 - A7 - E7 - B7
Дата: 6-12-2016, 21:40, Добавил: Aurondel, Раздел: Иностранные
Просмотров: 133, Комментариев: 0
G
I don't care if you never come home
C G
I don't mind if you just keep on rolling away on a distant sea cause
D * G
I don't love you and you don't love me.
Дата: 6-12-2016, 18:38, Добавил: Aurondel, Раздел: Иностранные
Просмотров: 172, Комментариев: 0
INTRO:

F Dm A C
|-----------1--|-----------1--|--------------|-----------0--|
|--------1-----|--------3-----|-----------2--|--------1-----|
|-----2--------|-----2--------|--------2-----|-----0--------|
|--3-----------|--0-----------|-----2--------|--------------|
|--------------|--------------|--0-----------|--3-----------|
|--------------|--------------|--------------|--------------|
Дата: 6-12-2016, 18:28, Добавил: Aurondel, Раздел: Иностранные
Просмотров: 147, Комментариев: 0
INTRO:
(listen to recording to get exact strumming pattern)

A A
|----------0-0-0--0-0-0--0-0------------0-0-0--0-0-0-0-0---------|
|----------2-2-2--2-2-2--2-2------------2-2-2--2-2-2-2-2---------|
|----------2-2-2--2-2-2--2-2------------2-2-2--2-2-2-2-2---------|
|----------2-2-2--2-2-2--2-2------------2-2-2--2-2-2-2-2---------|
|------0---0-0-0--0-0-0--0-0--------0---0-0-0--0-0-0-0-0---------|
|--0-2-------------------------0-2--------------------------0-2--|
Дата: 6-12-2016, 18:19, Добавил: Aurondel, Раздел: Иностранные
Просмотров: 141, Комментариев: 0
D G D
Oh my word what does it mean?
D G D
Is it love or is it me
Em
That makes me change so suddenly
Bm G D
Looking out feeling free
Дата: 6-12-2016, 18:06, Добавил: Aurondel, Раздел: Иностранные


Популярные песни
  • Титаник
  • Пираты карибского моря
  • Все бабы суки бабы бляди
  • Над старым аулом
  • Ламбада
  • Солдат (из к/ф Мы из будущего)
  • Мальчишка-наркоман
  • За Родину
  • Девочка не надо слезы лить напрасно
  • Орленок - Звезды


  • Облако тегов
    , 8 марта, Ария, Армия, би-2, блядь, Война, Грусть, Дворовые, ддт, Звери, Измена, Иностранные, интересное, Кино, КиШ, Красиво, красивые мелодии, Кузя, лагерное, лагерь, Лирика, Любовь, Любэ, Многоточие, Наутилус Помпилиус, о жизни, песни, песня, под гитару, Приколы, прикольное, Разное, Расставание, Сектор газа, Слезы, Сплин, У костра, Чиж и Ко, Школа

    Показать все теги