Войти
Навигация

Наша группа

0-9  A-Z  А  Б  В  Г  Д  Е  Ж  З  И  К  Л  М  Н  О  П  Р  С  Т  У  Ф  Х  Ц  Ч  Ш  Щ  Ю  Я 

Просмотров: 136, Комментариев: 0
Intro: first time, no lead

E / / / A / / / E / / / B / / /

second time, play chords

E / / / A / E / / / B / E / / /
Дата: 8-12-2016, 18:10, Добавил: Aurondel, Раздел: Иностранные
Просмотров: 101, Комментариев: 0
Intro: Play this 2x.
e|----------------------------------
B |----------------------------------
G |----------------------------------
D |-12-12-10-12----------------------
A |--------------12--11--10-----8----
E |--------------------------10---10-
Дата: 8-12-2016, 17:55, Добавил: Aurondel, Раздел: Иностранные
Просмотров: 137, Комментариев: 0
-----------0-----------------------0-----------------------3--------2-----
--------2-----------2-----------2-----------2-----------3--------------3--
-----2-----------2-----2-----1-----------1-----1-----0-----------0--------
--------------------------------------------------------------------------
--------------------------------------------------------------------------
--2-----------2-----------0-----------0-----------3-----------3-----------
Дата: 8-12-2016, 17:43, Добавил: Aurondel, Раздел: Иностранные
Просмотров: 218, Комментариев: 0
(Intro)

E ----0---2-2-0----------------------------0-2-2-0----*
B ----0---2-2-0----------------------------0-2-2-0----*
G ----1---2-2-1----------------------------1-2-2-1----*
D ----2---2-2-2----------2------2------2---2-2-2-2----*
A ----2-------2---2-2-⁄4---2-⁄4---2-⁄4-----2-----2----*
E --0---------0--------------------------0-------0----*
Дата: 8-12-2016, 17:28, Добавил: Aurondel, Раздел: Иностранные
Просмотров: 143, Комментариев: 0
Intro: G G C D G

Verse 1:

G Am
I got up this morning and fell out of bed
D G
Trying to make it to the door
Дата: 8-12-2016, 17:08, Добавил: Aurondel, Раздел: Иностранные
Просмотров: 101, Комментариев: 0
INTRO (Solo on verse)

D7 G7 G7/G# D7 Bm7 Em7 A7 D G7 D7 A7

VERSE 1

D7 D9
I got to ride, that lonesome train
G7 G7/G#
My heart is heavy, with aches and pains
D7 Bm7
I said but someday, someday baby
Дата: 8-12-2016, 16:44, Добавил: Aurondel, Раздел: Иностранные
Просмотров: 117, Комментариев: 0
INTRO: A D7 A D7
A D7 A D7
A E

A
Smile though your heart is aching
Amaj7
Smile even though it's breaking
F#m D/F# Bm F#
Though there are clouds in the sky, you'll get by
E F# Bm A Dm
If you smile through your fears and sorrows
Дата: 8-12-2016, 16:12, Добавил: Aurondel, Раздел: Иностранные


Популярные песни
  • Титаник
  • Пираты карибского моря
  • Все бабы суки бабы бляди
  • Над старым аулом
  • Ламбада
  • Солдат (из к/ф Мы из будущего)
  • Мальчишка-наркоман
  • За Родину
  • Девочка не надо слезы лить напрасно
  • Орленок - Звезды


  • Облако тегов
    , 8 марта, Ария, Армия, би-2, блядь, Война, Грусть, Дворовые, ддт, Звери, Измена, Иностранные, интересное, Кино, КиШ, Красиво, красивые мелодии, Кузя, лагерное, лагерь, Лирика, Любовь, Любэ, Многоточие, Наутилус Помпилиус, о жизни, песни, песня, под гитару, Приколы, прикольное, Разное, Расставание, Сектор газа, Слезы, Сплин, У костра, Чиж и Ко, Школа

    Показать все теги