Войти
Навигация

Мини-чат
Написалzhelinscky
6 января 2017
привет всем http://akkordmovi.com/
архив аккордов кручее намного
НаписалВексель
7 августа 2016
Всем привет
НаписалAragorn
4 апреля 2016
привет
НаписалVurf
1 марта 2016
шалом, бездельники!)
НаписалHohner
8 февраля 2016
https://www.youtube.com/watch?v=9
wG5oHsYkvA
НаписалHohner
8 февраля 2016
smile-03
Написалslaveckii77
24 января 2016
slaveckii77, Я тут))))
Написалslaveckii77
24 января 2016
Где все ??? ЭЭЭ народ?
Написалslaveckii77
24 января 2016
Где все ??? ЭЭЭ народ?
Написалslaveckii77
14 января 2016
Привет народ)

Только зарегистрированные пользователи могут отправлять сообщения.

Наша группа

0-9  A-Z  А  Б  В  Г  Д  Е  Ж  З  И  К  Л  М  Н  О  П  Р  С  Т  У  Ф  Х  Ц  Ч  Ш  Щ  Ю  Я 

Просмотров: 868, Комментариев: 0
Intro 1:

E||-------------------|----------
B||-------7---7-10----|-----7----
G||-9---9-------------|----9-9-9-... Not finished
D||---9-----9---------|---9---9--
A||-------------------|--7-------
E||-------------------|-0--------
Дата: 19-11-2014, 01:36, Добавил: au121, Раздел: Парк Горького (Gorky Park)
Просмотров: 720, Комментариев: 0
Dm С
В комнате….остался только звук
Gm
Прикосновение рук…
A
Остывшее тепло

В памяти…..осталась только тень
В окне вчерашний день…
Разбитый как стекло
Дата: 19-11-2014, 01:36, Добавил: au121, Раздел: Парк Горького (Gorky Park)
Просмотров: 922, Комментариев: 0
Em
Ты несла свою Беду
H7 Em
По весеннему, по льду:
E7 Am
Обломился лед, душа оборвалася,
H7
Камнем под воду пошла,
Дата: 19-11-2014, 01:36, Добавил: au121, Раздел: Парк Горького (Gorky Park)
Просмотров: 568, Комментариев: 0
(Intro)
N.H.
e|-0---0-2---0---|
B|---0-----0-----|
G|---------------|
D|------------(7)|
A|---------------|
E|---------------|
Дата: 19-11-2014, 01:36, Добавил: au121, Раздел: Парк Горького (Gorky Park)
Просмотров: 745, Комментариев: 0
проигрыш:
C Fmaj7 D5sus2 G (fill 1)
C Fmaj7 D5sus2 G

примечание:
C и Fmaj7 играть, отпуская 2 струну

D5sus2
III fret
e|o---|---|---|---|
H||-+-|---|---|---|
G||---|-+-|---|---|
D|o---|---|---|---|
A|x---|---|---|---|
E|x---|---|---|---|
Дата: 19-11-2014, 01:36, Добавил: au121, Раздел: Парк Горького (Gorky Park)
Просмотров: 1280, Комментариев: 0
Обозначения : F-флажолет.

Intro

E|----0------0------0-----0-----0-----0--0-----2--------5----7-|
B|--0------0---10-------0-----0-----0--------0-------2------5--|
G|9-----11------------7-----9-----5--------0-------0-------4---|
D|---------------------------------------2---------------------|
A|-----------------------------------------------3--------5----|
E|------------------0------------------------------------------|
Дата: 19-11-2014, 01:36, Добавил: au121, Раздел: Парк Горького (Gorky Park)
Просмотров: 1335, Комментариев: 0
riff 1 :
|---------------------------------------------------|
|-------4-----4-----4-----4-------3-----3-------1-3-|
|-----5-----5-----5-----5-------3-----3-----3-4-----| 4 times
|---5-----5-----5-----5-------3-----3-----3---------|
|-3-------------------------1-----------------------|
|---------------------------------------------------|
Дата: 19-11-2014, 01:36, Добавил: au121, Раздел: Парк Горького (Gorky Park)


Популярные песни
  • Титаник
  • Пираты карибского моря
  • Все бабы суки бабы бляди
  • Над старым аулом
  • Ламбада
  • Солдат (из к/ф Мы из будущего)
  • За Родину
  • Мальчишка-наркоман
  • Девочка не надо слезы лить напрасно
  • Орленок - Звезды


  • Облако тегов
    , 8 марта, Ария, Армия, би-2, блядь, Война, Грусть, Дворовые, ддт, Звери, Измена, Иностранные, интересное, Кино, КиШ, Красиво, красивые мелодии, Кузя, лагерное, лагерь, Лирика, Любовь, Любэ, Многоточие, Наутилус Помпилиус, о жизни, песни, песня, под гитару, Приколы, прикольное, Разное, Расставание, Сектор газа, Слезы, Сплин, У костра, Чиж и Ко, Школа

    Показать все теги