Войти
Навигация

Мини-чат
Написалgitaristo4ka
2 июля 2015
куу
новые рецепты приготовления
НаписалКузьменко
11 июня 2015
Кто знает новые армейские песни а то все просмотрел и все знаю
новые рецепты приготовления
НаписалМихаил Шут
26 мая 2015
как жизнь, братья
новые рецепты приготовления
НаписалBodya13
10 марта 2015
smile-07
новые рецепты приготовления
НаписалBodya13
9 марта 2015
smile-23
новые рецепты приготовления
НаписалBodya13
9 марта 2015
новые рецепты приготовления
НаписалBodya13
9 марта 2015
am
новые рецепты приготовления
НаписалBodya13
9 марта 2015
новые рецепты приготовления
НаписалBodya13
9 марта 2015
Есть кто в сети wink fellow
новые рецепты приготовления
НаписалBodya13
9 марта 2015
Всем привет smile-09
новые рецепты приготовления

Только зарегистрированные пользователи могут отправлять сообщения.

Наша группа

0-9  A-Z  А  Б  В  Г  Д  Е  Ж  З  И  К  Л  М  Н  О  П  Р  С  Т  У  Ф  Х  Ц  Ч  Ш  Щ  Ю  Я 

Аккорды к песне Просто была одна мечта

Просмотров: 86001, Комментариев: 8
 (голосов: 151)




Транспонировать:
Перебор наподобии такого
Am
|---------------------------------------------------|
|---------1-----0-----1-----3-----1----0-----1------|
|------2-----2-----2-----2-----2-----2----2-----2---|
|---------------------------------------------------|
|---0-----------------------------------------------|
|---------------------------------------------------|

Am
В полумраке на столе, бумаги лист лежит
C
Дрожь в руке и след карандаша зачем лежит
F
Не догнать его потока мутного реки
Am
И в ушах и сердце разрываю на куски
Солнце пляшет, мы с тобой вдвоём наедине
Освежится в речке бурной предложила мне
Я не знал что так бывает отошёл всего на миг
Было поздно я услышал лишь последний крик

G F Am
Не помогут слезы не вернуть обратно
Я не буду плакать даже если надо

Припев:

Am F G
Просто мечта одна была чтобы просто ты жила
E Am
И чтобы жизнь твоя дотла не сгорела никогда
На зло судьбы твоей каприз все желанья не сбылись
Те мечты твои о том как постороим дом
В котором будем жить и ты и я (и ты и я)
В котором всё и воздух для тебя

День четвёртый КПЗ, решётка, темнота
Молодой сержант и беспонтовые слова
Мне не надо объяснять я понял всё без слов
Просто это наказанье за мою любовь
Просто с первых дней твой папа не любил меня
И не раз меня встречали папины друзья
А теперь судья знакомый папин как на зло
Что сказать судьбе в глаза ну чтож не повезло

Не помогут слезы не вернуть обратно
Я не буду плакать даже если надо
Припев.
3

Название боя: как хотите так и называйте
Почтовый ящик: veronichka.rubtsova@mail.ru
Видео: ---
Комментарий: ---
17

Название боя: 6
Почтовый ящик: alex.danilchencko@yandex.ru
Видео: ---
Комментарий: ---
8

Название боя: не знаю сам подобрал
Почтовый ящик: adidasi111@mail.ru
Видео: ---
Комментарий: 2 вниз большим пальцем 1 указательным в верх тоже указательным
7

Название боя: ---
Почтовый ящик: ya.dogg96@yandex.ru
Видео: ---
Комментарий: ---
Добавить новый гитарный бой
Дата: 19-06-2011, 20:41, Добавил: Melanholik, Раздел: Лирические, Про любовь
Комментарий №1
Евген 29 августа 2011 16:28 Группа: Гости
А какой тут бой??
Комментарий №2
Savin.S 29 августа 2011 16:31 Группа: Гости
Евген, на слух
Комментарий №3
batya654 12 февраля 2012 11:34 Группа: Гости
Песня классная! Давно искал.
Комментарий №4
Cашка 12 апреля 2012 19:52 Группа: Гости
перебор напишите плиз подробнее с Ам все ясно но на F хз как )\
Комментарий №5
Savin.S 12 апреля 2012 23:40 Группа: Гости
Постараюсь завтра придумать че нить )
Комментарий №6
Cашка 17 апреля 2012 19:25 Группа: Гости
Savin.S когда дашь то ответ ??? а то песня норм но блин х его знает что там с F )
Комментарий №7
Savin.S 17 апреля 2012 23:43 Группа: Гости
Да я взял камеру ) Попробую завтра записать
Комментарий №8
VFSPBGUGA 5 августа 2014 14:58 Группа: Гости
аккорда F нет там

Перебор такой
= Am =
|---------------------------------------------------|
|---------1-----0-----1-----3-----1----0-----1------|
|------2-----2-----2-----2-----2-----2----2-----2---|
|---------------------------------------------------|
|---0-----------------------------------------------|
|---------------------------------------------------|
= С =
|---------------------------------------------------|
|---------1-----0-----1-----3-----1----0-----1------|
|------2-----2-----2-----2-----2-----2----2-----2---|
|---------------------------------------------------|
|---3-----------------------------------------------|
|---------------------------------------------------|
(заместо F)
|---------------3------1------0------------------------|
|---------0---------------------------3-------1-------0---|
|------0-----0-----0-----0-------0------0-------0------0-|
|----------------------------------------------------------|
|---0------------------------------------------------------|
|----------------------------------------------------------|
вся песня играется так, все куплеты

а бой в припевах такой \/ \/^\/^\/ \/
никаких пауз и заглушек
Информация
Посетители, находящиеся в группе Гости, не могут оставлять комментарии к данной публикации.



Популярные песни
  • Титаник
  • Пираты карибского моря
  • Все бабы суки бабы бляди
  • Над старым аулом
  • Ламбада
  • Солдат (из к/ф Мы из будущего)
  • Девочка не надо слезы лить напрасно
  • Мальчишка-наркоман
  • Орленок - Звезды
  • За Родину


  • Облако тегов
    , 8 марта, 9 мая, Noize MC, Ария, Армия, би-2, блядь, вожатый, Война, Грусть, Дворовые, ддт, Звери, Измена, Иностранные, интересное, Кино, КиШ, Красиво, Кузя, лагерное, лагерь, Лирика, Любовь, Любэ, Многоточие, Наутилус Помпилиус, о жизни, песня, под гитару, Приколы, Разное, Расставание, Сектор газа, Слезы, Сплин, У костра, Чиж и Ко, Школа

    Показать все теги