Войти
Навигация

Мини-чат
Написалzhelinscky
6 января 2017
привет всем http://akkordmovi.com/
архив аккордов кручее намного
НаписалВексель
7 августа 2016
Всем привет
НаписалAragorn
4 апреля 2016
привет
НаписалVurf
1 марта 2016
шалом, бездельники!)
НаписалHohner
8 февраля 2016
https://www.youtube.com/watch?v=9
wG5oHsYkvA
НаписалHohner
8 февраля 2016
smile-03
Написалslaveckii77
24 января 2016
slaveckii77, Я тут))))
Написалslaveckii77
24 января 2016
Где все ??? ЭЭЭ народ?
Написалslaveckii77
24 января 2016
Где все ??? ЭЭЭ народ?
Написалslaveckii77
14 января 2016
Привет народ)

Только зарегистрированные пользователи могут отправлять сообщения.

Наша группа

0-9  A-Z  А  Б  В  Г  Д  Е  Ж  З  И  К  Л  М  Н  О  П  Р  С  Т  У  Ф  Х  Ц  Ч  Ш  Щ  Ю  Я 

Аккорды к песне AC/DC - Boogie Man

Просмотров: 734, Комментариев: 0
 (голосов: 1)




Транспонировать:
Gtr.1 Pattern 1 Gtr.2 Pattern 2
b r B r
E |----------------------------| E |------------------------------------|
B |----------------------------| B |------------------------------------|
G |2-0--2-2--0--2-2--0--2-2----| G |-7-9-7---5------------7-9-7----5----|
D |0-0--0-0--0--0-0--0--0-0----| D |--------------7---------------------|
A |----------------------------| A |------------------------------------|
E |----------------------------| E |------------------------------------|

I`m the Boogie Man...

Patt.1 & Patt.2
Some people say I'm only out at night
Maybe those folks might of got it right
and some people say I drive A cadillac car
N.C.
or sell my wares huntin' Hotel Bars

I'm the Boogie Man , the Boogie Man
A5 G5 D/F# G 4x then
E |-------------3--| E |----------------------------|
B |--------2----3--| B |----------------------------|
G |-2--0---3-------| G |2-0--2-2--0--2-2--0--2-2----| & Pattern 1b
D |-2--0-----------| D |2-0--2-2--0--2-2--0--2-2----|
A |----------------| A |----------------------------|
E |--------2----3--| E |----------------------------|

Patt.1 & Patt.2
I like fine suits, smoke the best cigars
like talking sex to woman, girls in fast cars
I might be under the bed, ready to bite
So little girl be careful, when you're on your own tonight

I'm your Boogie Man , your Boogie Man

And I hope,... , that you don't misunderstand your Boggie Man
E5 D5 A5 G5 A5 G5 A5 G5 A5
E |---------------------|------------------|----------------------------|
B |---------------------|-2-2--2-2-2-2-2-2-|----------------------------|
G |---------------------|-3-3--3-3-3-3-3-3-|2-0--2-2--0--2-2--0--2-2----|
D |-2-2-2--2-2-2--2-2-2-|-0-0--0-0-0-0-0-0-|2-0--2-2--0--2-2--0--2-2----|
A |-2-2-2--2-2-2--2-2-2-|------------------|----------------------------|
E |---------------------|------------------|----------------------------|

And don't let the sun come up on me, your Boogie Man
E5 D5 A5 G5 A5 G5 A5 G5 A5
E |---------------------|------------------|----------------------------|
B |---------------------|-2-2--2-2-2-2-2-2-|----------------------------|
G |---------------------|-3-3--3-3-3-3-3-3-|2-0--2-2--0--2-2--0--2-2----|
D |-2-2-2--2-2-2--2-2-2-|-0-0--0-0-0-0-0-0-|2-0--2-2--0--2-2--0--2-2----|
A |-2-2-2--2-2-2--2-2-2-|------------------|----------------------------|
E |---------------------|------------------|----------------------------|
I'm your Boogie Man , your Boogie Man
Добавить новый гитарный бой
Дата: 24-01-2014, 21:58, Добавил: Aurondel, Раздел: Иностранные
Информация
Посетители, находящиеся в группе Гости, не могут оставлять комментарии к данной публикации.



Популярные песни
  • Титаник
  • Пираты карибского моря
  • Все бабы суки бабы бляди
  • Над старым аулом
  • Ламбада
  • Солдат (из к/ф Мы из будущего)
  • За Родину
  • Мальчишка-наркоман
  • Девочка не надо слезы лить напрасно
  • Орленок - Звезды


  • Облако тегов
    , 8 марта, Ария, Армия, би-2, блядь, Война, Грусть, Дворовые, ддт, Звери, Измена, Иностранные, интересное, Кино, КиШ, Красиво, красивые мелодии, Кузя, лагерное, лагерь, Лирика, Любовь, Любэ, Многоточие, Наутилус Помпилиус, о жизни, песни, песня, под гитару, Приколы, прикольное, Разное, Расставание, Сектор газа, Слезы, Сплин, У костра, Чиж и Ко, Школа

    Показать все теги