Войти
Навигация

Мини-чат
Написалzhelinscky
23 октября 2016
привет всем заходите на портал гитаристов akkordmovi.com
Написалzhelinscky
23 октября 2016
всем привет заходите на новый портал гитаристов [leech=http://akkordmovi.com]akko
rdmovi.com[/leech]
НаписалВексель
7 августа 2016
Всем привет
НаписалAragorn
4 апреля 2016
привет
НаписалVurf
1 марта 2016
шалом, бездельники!)
НаписалHohner
8 февраля 2016
https://www.youtube.com/watch?v=9
wG5oHsYkvA
НаписалHohner
8 февраля 2016
smile-03
Написалslaveckii77
24 января 2016
slaveckii77, Я тут))))
Написалslaveckii77
24 января 2016
Где все ??? ЭЭЭ народ?
Написалslaveckii77
24 января 2016
Где все ??? ЭЭЭ народ?

Только зарегистрированные пользователи могут отправлять сообщения.

Наша группа

0-9  A-Z  А  Б  В  Г  Д  Е  Ж  З  И  К  Л  М  Н  О  П  Р  С  Т  У  Ф  Х  Ц  Ч  Ш  Щ  Ю  Я 

Аккорды к песне Зинчук Виктор - Марш Из Оперы "Аида"

Просмотров: 910, Комментариев: 0
 (голосов: 1)




Транспонировать:
Тема
Tempo de marcha
E |------++---------------------------------------------|
B |------++---------------------------------------------|
G |------++---------------------------------------------|
D |--2/7-++--9p7-9h11--11p9-7h11--9p7--9h11-11--9h11-11-|
A |------++---------------------------------------------|
E |------++---------------------------------------------|

Окончание
E |--------++-----------*---------|
B |--------++-----------*---------|
G |--------++-----------*---------|
D |--7h9-9-++-4-4-4-6-7-*9p7------|
A |--------++-----------*----9h10-|
E |--------++-----------*---------|

Вариант
E |--------------++-|
B |--------------++-|
G |--------------++-|
D |--2/7-7--7-7--++-|
A |------7--7-7--++-|
E |------5--5-5--++-|

E |-------------------------------------------------------------|
B |-------------------------------------------------------------|
G |-------------------------------------------------------------|
D |-9-7-9-11-11--11-11--11-9-7-11-11-9-7--9-11-11-11-9-11-11-11-|
A |----------11--11-11------------11--------------11---------11-|
E |-----------9---9--9-------------9---------------9----------9-|

Окончание
E |---------++-----------*---------|
B |---------++-----------*---------|
G |---------++-----------*---------|
D |--7-9-9-9++-4-4-4-6-7-*9-7------|
A |--------7++-----4---7-*----9-10-|
E |--------7++-----2---5-*---------|
Добавить новый гитарный бой
Дата: 19-11-2013, 19:01, Добавил: Aurondel, Раздел: Зинчук Виктор
Информация
Посетители, находящиеся в группе Гости, не могут оставлять комментарии к данной публикации.



Популярные песни
  • Титаник
  • Пираты карибского моря
  • Все бабы суки бабы бляди
  • Над старым аулом
  • Ламбада
  • Солдат (из к/ф Мы из будущего)
  • Мальчишка-наркоман
  • За Родину
  • Девочка не надо слезы лить напрасно
  • Орленок - Звезды


  • Облако тегов
    , 8 марта, Ария, Армия, би-2, блядь, Валерий Скутин, Война, Грусть, Дворовые, ддт, Звери, Измена, Иностранные, интересное, Кино, КиШ, Красиво, Кузя, лагерное, лагерь, Лирика, Любовь, Любэ, ляпис трубецкой, Многоточие, Наутилус Помпилиус, о жизни, песни, песня, под гитару, Приколы, Разное, Расставание, Сектор газа, Слезы, Сплин, У костра, Чиж и Ко, Школа

    Показать все теги