Войти
Навигация

Мини-чат
Написалzhelinscky
23 октября 2016
привет всем заходите на портал гитаристов akkordmovi.com
Написалzhelinscky
23 октября 2016
всем привет заходите на новый портал гитаристов [leech=http://akkordmovi.com]akko
rdmovi.com[/leech]
НаписалВексель
7 августа 2016
Всем привет
НаписалAragorn
4 апреля 2016
привет
НаписалVurf
1 марта 2016
шалом, бездельники!)
НаписалHohner
8 февраля 2016
https://www.youtube.com/watch?v=9
wG5oHsYkvA
НаписалHohner
8 февраля 2016
smile-03
Написалslaveckii77
24 января 2016
slaveckii77, Я тут))))
Написалslaveckii77
24 января 2016
Где все ??? ЭЭЭ народ?
Написалslaveckii77
24 января 2016
Где все ??? ЭЭЭ народ?

Только зарегистрированные пользователи могут отправлять сообщения.

Наша группа

0-9  A-Z  А  Б  В  Г  Д  Е  Ж  З  И  К  Л  М  Н  О  П  Р  С  Т  У  Ф  Х  Ц  Ч  Ш  Щ  Ю  Я 

Аккорды к песне Зинчук Виктор - Scherzo H-minor

Просмотров: 729, Комментариев: 0
 (голосов: 0)




Транспонировать:
E |--7--10-7--------------------|-------------------------------|
B |----------7--12-7------------|-------------------------------|
G |------------------7--11-7----|----4-7-4-6-4-6-4---6-9-6-7----|
D |--------------------------9--|--4---------------7----------9-|
A |-----------------------------|-------------------------------|
E |-----------------------------|-------------------------------|

E |-7--10-7----------------------|----------------7-------------|
B |---------7--12-7--------------|------------------------------|
G |-----------------7--11-7------|--7-6-7--7-6-7-----7--7-9-7-6-|
D |-------------------------9----|------------------------------|
A |------------------------------|------------------------------|
E |------------------------------|------------------------------|

E |---------------10--------------|
B |-7-6-7--7-6-7------7--7-9-7-6--|
G |-------------------------------|
D |-------------------------------|
A |-------------------------------|
E |-------------------------------|

E |---------------------------------------|
B |----7-10-7-9-7-9-7----9-12-9-10-9-10-9-|
G |--6----------------10------------------|
D |---------------------------------------|
A |---------------------------------------|
E |---------------------------------------|

E |----------------------------9----------10-------|
B |----10----------12------------------------------|
G |-11----11-10-11----11-10-11---11-10-11----11-10-|
D |------------------------------------------------|
A |------------------------------------------------|
E |------------------------------------------------|

E |----10-9----9--------------------------|
B |---------12---10-9----10--9-10-9-------|
G |-11----------------11------------11----|
D |---------------------------------------|
A |---------------------------------------|
E |---------------------------------------|

E |--7-7-10-7---------------------|
B |-----------7-7-12-7------------|
G |--------------------7-7-11-7---|
D |-----------------------------9-|
A |-------------------------------|
E |-------------------------------|

E |-------------------------------|
B |-------------------------------|
G |---4-7-4-6-4-6-4---6-9-6-7-----|
D |-4---------------7----------9--|
A |-------------------------------|
E |-------------------------------|

E |--7--10-9-7------------------------|
B |------------7--12-10-7-------------|
G |-----------------------7--11-9-7---|
D |---------------------------------9-|
A |-----------------------------------|
E |-----------------------------------|

E |---------------7--------------|
B |------------------------------|
G |-7-6-7--7-6-7-----7--7-9-7-6--|
D |------------------------------|
A |------------------------------|
E |------------------------------|

E |----------------10-------------|
B |--7-6-7--7-6-7------7--7-9-7-6-|
G |-------------------------------|
D |-------------------------------|
A |-------------------------------|
E |-------------------------------|

E |--------------------------------------|
B |---7-10-7-9-7-9-7----9-12-9-10-9-10-9-|
G |-6----------------10------------------|
D |--------------------------------------|
A |--------------------------------------|
E |--------------------------------------|

E |----------------------------9----------10-------|
B |----10----------12------------------------------|
G |-11----11-10-11----11-10-11---11-10-11----11-10-|
D |------------------------------------------------|
A |------------------------------------------------|
E |------------------------------------------------|

E |----10-9----9--------------------------|
B |---------12---10-9----10--9-10-9-------|
G |-11----------------11------------11----|
D |---------------------------------------|
A |---------------------------------------|
E |---------------------------------------|

E |----------------------------|
B |--7--10-7-------------------|
G |----------6--11-6-----------|
D |------------------7--11-7---|
A |--------------------------9-|
E |----------------------------|

E |--------------5------------|----------------------------|
B |-------5--0-7----8-7-8--5--|--8--12-8-------------------|
G |-5--4----------------------|----------9--12-9-----9-6---|
D |---------------------------|------------------11------7-|
A |---------------------------|----------------------------|
E |---------------------------|----------------------------|

E |---------------------------------|
B |-----7-------------5-8-5-7-5-7-5-|
G |---7---7-9-7-9-7-6---------------|
D |-7-------------------------------|
A |---------------------------------|
E |---------------------------------|

E |--------------------5-------7-----|
B |----7-------8---------------------|
G |--7---7-6-7---7-6-7---7-6-7---7-6-|
D |----------------------------------|
A |----------------------------------|
E |----------------------------------|
[p.m.....]

E |---7-5---5-------------------|----------------10-------------|
B |-------8---7-5---7--5-7-5----|--7-5-7--7-5-7------7--7-8-7-5-|
G |-7-------------7----------7--|-------------------------------|
D |-----------------------------|-------------------------------|
A |-----------------------------|-------------------------------|
E |-----------------------------|-------------------------------|

E |---------------9---------------|--7--10-7---------7----------|
B |-------------------------------|----------10-8------10-8-7---|
G |-9-7-9--9-7-9-----9--9-11-9-7--|---------------------------9-|
D |-------------------------------|-----------------------------|
A |-------------------------------|-----------------------------|
E |-------------------------------|-----------------------------|

E |--------------------------------|--------------------------2-|
B |-8-7-5-----5-8-5----------------|---------2-5-3-2-3--2-3-5---|
G |-------7-5-------5-4-5-4-3------|-----4-3--------------------|
D |----------------------------4-5-|--4-------------------------|
A |--------------------------------|----------------------------|
E |--------------------------------|----------------------------|

E |------7-----------------|
B |-3/7-----7--5-----------|
G |--------------7-6-7-6-4-|
D |------------------------|
A |------------------------|
E |------------------------|
Добавить новый гитарный бой
Дата: 19-11-2013, 17:55, Добавил: Aurondel, Раздел: Зинчук Виктор
Информация
Посетители, находящиеся в группе Гости, не могут оставлять комментарии к данной публикации.



Популярные песни
  • Титаник
  • Пираты карибского моря
  • Все бабы суки бабы бляди
  • Над старым аулом
  • Ламбада
  • Солдат (из к/ф Мы из будущего)
  • Мальчишка-наркоман
  • За Родину
  • Девочка не надо слезы лить напрасно
  • Орленок - Звезды


  • Облако тегов
    , 8 марта, Ария, Армия, би-2, блядь, Валерий Скутин, Война, Грусть, Дворовые, ддт, Звери, Измена, Иностранные, интересное, Кино, КиШ, Красиво, Кузя, лагерное, лагерь, Лирика, Любовь, Любэ, ляпис трубецкой, Многоточие, Наутилус Помпилиус, о жизни, песни, песня, под гитару, Приколы, Разное, Расставание, Сектор газа, Слезы, Сплин, У костра, Чиж и Ко, Школа

    Показать все теги