Войти
Навигация

Мини-чат
Написалzhelinscky
23 октября 2016
привет всем заходите на портал гитаристов akkordmovi.com
Написалzhelinscky
23 октября 2016
всем привет заходите на новый портал гитаристов [leech=http://akkordmovi.com]akko
rdmovi.com[/leech]
НаписалВексель
7 августа 2016
Всем привет
НаписалAragorn
4 апреля 2016
привет
НаписалVurf
1 марта 2016
шалом, бездельники!)
НаписалHohner
8 февраля 2016
https://www.youtube.com/watch?v=9
wG5oHsYkvA
НаписалHohner
8 февраля 2016
smile-03
Написалslaveckii77
24 января 2016
slaveckii77, Я тут))))
Написалslaveckii77
24 января 2016
Где все ??? ЭЭЭ народ?
Написалslaveckii77
24 января 2016
Где все ??? ЭЭЭ народ?

Только зарегистрированные пользователи могут отправлять сообщения.

Наша группа

0-9  A-Z  А  Б  В  Г  Д  Е  Ж  З  И  К  Л  М  Н  О  П  Р  С  Т  У  Ф  Х  Ц  Ч  Ш  Щ  Ю  Я 

Аккорды к песне Кузя - Здравствуй Универ

Просмотров: 35044, Комментариев: 1
 (голосов: 50)




Транспонировать:
Вступление: G C G C
E-----------------------|---------------------|
B------3-1--1--1--------|---------3--1--------|
G--0--------------------|------0--------------|
D-----------------------|----0----------------|
A-------------3--3------|---------------------|
E-----------------------|-3-------------------|

Куплет: G C (3 раза)
E------------------------|
B-------3---------1------|
G----0---------0---------|
D------------------------|
A------------3-----------|
E--3---------------------|
Я хотел написать эту песню,
О друзьях и общаге,
Я хотел написать эту песню,


H7 Em
E-------------------------|
B----------0-----------0--|
G------2-----------0------|
D-------------------------|
A---2------------2--------|
E-------------------------|
Только все получались шняги



C H7 Em C
E------------------------|--------------0----|
B--------1-------------0-|---------0----1----|
G-----0-----------2------|-----0--------0----|
D------------------------|------------- 2----|
A--3----------2----------|--2-----------3----|
E------------------------|--------------0----|
И гитара с мечтой улетела,
А еще прилетело мне в глаз...

Вся песня играется боем: / (P) /-/-/-/-/-/-/-/, где / - вниз, / - вверх, P - пауза.
Меняется бой в начале, где поется "Но друзья помогли мне в проблеме", играется / (P) /-/-/.
Где поется "Так знакомо скрипнет дверь" и "Ты в мечту свою поверь" играется всё время вниз.
Прослушав песню несколько раз, я думаю, вы услышите бой, который там отчетливо слышен.



G C
Я хотел написать эту песню
G C
О друзьях и общаге,
G C
Я хотел написать эту песню
H7 Em
Только все получались шняги.
C H7
И гитара с мечтой улетела,
Em C
А еще прилетело мне в глаз,
G C
Но друзья помогли мне в проблеме
D
И припев этот новый о нас.


C H7 Em
Беды растворятся, словно в кипятке лапша
C D G
И я знаю точно, будем вместе мы всегда,
H7 Em C D G
И в уютном блоке, так знакомо скрепит дверь
H7 Em
До свидания мама
C D G
Здравствуй Универ!


C H7
К черту все запары
Em
До диплома далеко,
C
Не пойдем на пары
D G
Нам в общаге хорошо.
H7 Em C D G
Все тебе по силам Ты в мечту свою поверь!
H7 Em
До свидания мама
C D G
Здравствуй Универ!

Далее играется перебором, как куплет:

Я хотел написать эту песню
О друзьях и общаге,
Я хотел написать эту песню
И я ее написал
Добавить новый гитарный бой
Дата: 18-09-2011, 12:03, Добавил: DizzeeR, Раздел: Прикольные
Комментарий №1
genri_2012 23 апреля 2013 14:02 Группа: Гости
песня жесть
Информация
Посетители, находящиеся в группе Гости, не могут оставлять комментарии к данной публикации.



Популярные песни
  • Титаник
  • Пираты карибского моря
  • Все бабы суки бабы бляди
  • Над старым аулом
  • Ламбада
  • Солдат (из к/ф Мы из будущего)
  • Мальчишка-наркоман
  • За Родину
  • Девочка не надо слезы лить напрасно
  • Орленок - Звезды


  • Облако тегов
    , 8 марта, Ария, Армия, би-2, блядь, Война, гитара, Грусть, Дворовые, ддт, Звери, Измена, Иностранные, интересное, Кино, КиШ, Красиво, Кузя, лагерное, лагерные песни, лагерь, Лирика, Любовь, Любэ, Многоточие, Море, Наутилус Помпилиус, о жизни, песня, под гитару, Приколы, Разное, Расставание, Сектор газа, Слезы, Сплин, У костра, Чиж и Ко, Школа

    Показать все теги