Войти
Навигация

Мини-чат
Написалzhelinscky
23 октября 2016
привет всем заходите на портал гитаристов akkordmovi.com
Написалzhelinscky
23 октября 2016
всем привет заходите на новый портал гитаристов [leech=http://akkordmovi.com]akko
rdmovi.com[/leech]
НаписалВексель
7 августа 2016
Всем привет
НаписалAragorn
4 апреля 2016
привет
НаписалVurf
1 марта 2016
шалом, бездельники!)
НаписалHohner
8 февраля 2016
https://www.youtube.com/watch?v=9
wG5oHsYkvA
НаписалHohner
8 февраля 2016
smile-03
Написалslaveckii77
24 января 2016
slaveckii77, Я тут))))
Написалslaveckii77
24 января 2016
Где все ??? ЭЭЭ народ?
Написалslaveckii77
24 января 2016
Где все ??? ЭЭЭ народ?

Только зарегистрированные пользователи могут отправлять сообщения.

Наша группа

0-9  A-Z  А  Б  В  Г  Д  Е  Ж  З  И  К  Л  М  Н  О  П  Р  С  Т  У  Ф  Х  Ц  Ч  Ш  Щ  Ю  Я 

Аккорды к песне Би-2 - Серебро

Просмотров: 2575, Комментариев: 0
 (голосов: 1)




Транспонировать:
1 куплет:
Am F
"Я не вернусь" -
Dm Em Am
Так говорил когда-то,
F Dm Em Am
И туман глотал мои слова
F Dm Em
И превращал их в воду.
Am F
Я всё отдам
Dm Em Am
За продолжение пути,
F Dm Em Am F Dm Em
Оставлю позади свою беспечную свободу.

Припев:
Dm Em Am
Не потерять бы в серебре
F
Её одну -
Dm Em
Заветную.

Проигрыш 1:

E |-7-12-7-8--8-12-5---13-13-13-12-10-8-7-8--8-12-5-|

E |-13-13-13-12-0-10-7-8--8-12-5---13-13-13-12-10-8-7-8--8-12-5-|

E |-13-13-13-12-|

Не по себе
И далее: E --0-10-7- Am (т.е. не - 0, по - 10, се - 7, бе- Am )

2 куплет:
Am F
Не по себе
Dm Em Am F
От этой тихой и чужой зимы,
Dm Em Am
С которой я на "ты" -
F Dm Em
Нам не стерпеть друг друга.
Am F
И до войны
Dm Em Am
Мне не добраться никогда,
F Dm Em Am F Dm Em
Моя безумная звезда ведёт меня по кругу

Припев.

Проигрыш 2:

E |-5-7-8-7-5^7^5-----------------------|
B |---------------6-----5-6-8-6-5^6^5---|
G |-----------------------------------7-|

E |-10--12-----15-13--12^13^12--10-|
B |--------------------------------|
G |--------------------------------|

E |-5~10-10---12---3~5-5--7-----8-8-8-|
B |-----------------------------------|
G |--------------------0--------------|

E |-15-13--12^13^12--10-|
B |---------------------|
G |---------------------|

E |-10~19-19-19-19-19-19-17---8~12-12-12-13-12-10-|
B |-----------------------------------------------|
G |-----------------------------------------------|

E |-5~10-10-10--12--3~5-5-5--7-|
B |----------------------------|
G |----------------------------|

3 куплет:
Am F
А в облаках
Dm Em Am F
Застыл луны неверный свет, и в нём
Dm Em Am F
Перемешались города, и я
Dm Em Am F Dm Em
Зову её несмело.

Припев.

Окончание:

E |-7-12-7-8--8-12-5---13-13-13-12-10-8-7-8--8-12-5-|

E |-13-13-13-12-0-10-7-8--8-12-5---13-13-13-12-10-8-7-8--8-12-5-|

E |-13-13-13-12-0-10-7-8--8-12-5---13-13-13-12-10-8-7-8--8-12-5-|

E |-13-13-13-12-0-10-7-8--8-12-5---13-13-13-12-10-8-7-8--8-12-5-|

(и возможно ещё несколько раз)

Добавить новый гитарный бой
Дата: 19-07-2013, 19:04, Добавил: Aurondel, Раздел: Би-2
Информация
Посетители, находящиеся в группе Гости, не могут оставлять комментарии к данной публикации.



Популярные песни
  • Титаник
  • Пираты карибского моря
  • Все бабы суки бабы бляди
  • Над старым аулом
  • Ламбада
  • Солдат (из к/ф Мы из будущего)
  • Мальчишка-наркоман
  • За Родину
  • Девочка не надо слезы лить напрасно
  • Орленок - Звезды


  • Облако тегов
    , 8 марта, Ария, Армия, би-2, блядь, Война, гитарное, Гражданская оборона, Грусть, Дворовые, ддт, Звери, Измена, Иностранные, интересное, Кино, КиШ, Красиво, Кузя, лагерное, лагерь, Лирика, Любовь, Любэ, ляпис, Многоточие, Наутилус Помпилиус, о жизни, песня, под гитару, Приколы, Разное, Расставание, Сектор газа, Слезы, Сплин, У костра, Чиж и Ко, Школа

    Показать все теги