Войти
Навигация

Мини-чат
Написалzhelinscky
23 октября 2016
привет всем заходите на портал гитаристов akkordmovi.com
Написалzhelinscky
23 октября 2016
всем привет заходите на новый портал гитаристов [leech=http://akkordmovi.com]akko
rdmovi.com[/leech]
НаписалВексель
7 августа 2016
Всем привет
НаписалAragorn
4 апреля 2016
привет
НаписалVurf
1 марта 2016
шалом, бездельники!)
НаписалHohner
8 февраля 2016
https://www.youtube.com/watch?v=9
wG5oHsYkvA
НаписалHohner
8 февраля 2016
smile-03
Написалslaveckii77
24 января 2016
slaveckii77, Я тут))))
Написалslaveckii77
24 января 2016
Где все ??? ЭЭЭ народ?
Написалslaveckii77
24 января 2016
Где все ??? ЭЭЭ народ?

Только зарегистрированные пользователи могут отправлять сообщения.

Наша группа

0-9  A-Z  А  Б  В  Г  Д  Е  Ж  З  И  К  Л  М  Н  О  П  Р  С  Т  У  Ф  Х  Ц  Ч  Ш  Щ  Ю  Я 

Аккорды к песне Бони неМ - Замок из дождя

Просмотров: 2135, Комментариев: 0
 (голосов: 0)




Транспонировать:
Tuning D

Intro
Riff A1
Gtr 1 (clean electric) x10
E |-------------0----------1--x-3-3--x------------|
B |*-----1--------1--------1--x-3-3--x----------*-|
G |--------2--------2------2--x-4-4--x------------|
D |----------2--------2----3--x-5-5--x------------|
A |*--0--------------------3--x-5-5--x----------*-|
E |------------------------1--x-------------------|

Gtr 2 lead (smooth dist) full
E |-----------------------------------/----|
B |----------------------------------/--21-|
G |--9-12-14~---17p1614--16-17~----19------|
D |----------------------------------------|
A |----------------------------------------|
E |----------------------------------------|

full
E |---/--------------------------------|
B |--/---------------------------------|
G |-19----1412--1210--109--7-7-7h10p9~-|
D |------------------------------------|
A |------------------------------------|
E |------------------------------------|

Gtr 2 lead full
E |------------------------------------/---------|
B |--------------------------------18-20r--------|
G |------------15--17--19-19/21~----------21--19-|
D |----12/15---15--17--19-19/21~-----------------|
A |----12/15-------------------------------------|
E |----------------------------------------------|

full
E |-----------------------------/-|
B |----------------------------/--|
G |-21-19h21~-----------------/---|
D |-------------5h7-5-7-10-9-10r--|
A |-------------------------------|
E |-------------------------------|

Riff A2
Gtr 1 (clean electric)
...Забрели с тобой шутя.....
E |-----------0----------------1-----------1-----|
B |-----1-------1--------1-------1-----------3---|
G |-------2-------2--------2-------2-----------2-|
D |---------2-------2--------2-------2---0-------|
A |--3-----------------0-------------------------|
E |----------------------------------------------|

...мы за стены дождя...
E |-1--------------------0-------|
B |---3---2------1---------1-----|
G |-----2-----------2--------2---|
D |-------------------2--------2-|
A |-----------3------------------|
E |------------------------------|

Riff A1 x2
Riff A2 x1, потом

Riff A3
Gtr 1 (clean electric)
...В нашем призрачном замке...
E |-----------1----------1------1-----------------1--------|
B |------1------1----------3------3---2-----1-------1------|
G |--------2------2----------2------2---------2-------2----|
D |----------2------2---0------------------------2-------2-|
A |---0----------------------------------3-----------------|
E |--------------------------------------------------------|
Chorus
Gtr 1 and Gtr 2
...Мы вошли, в этот замок из дождя...
E |---------------------------------------------------|
B |---------------------------------------------------|
G |---------------------------------------------------|
D |---------------------------------------------------|
A |-7-7-7-7-7-7-7-7--7-----7-----7----3-----3-----3---|
E |-5-5-5-5-5-5-5-5--5-5-5-5-5-5-5-5--1-1-1-1-1-1-1-1-|

...Только двое - ты и я...
E |----------------------------------|
B |----------------------------------|
G |----------------------------------|
D |----------------------------------|
A |-5-----5-----5----2-----2-----2---|
E |-3-3-3-3-3-3-3-3--0-0-0-0-0-0-0-0-|

Gtr 1 and Gtr 2
...И так долго были
E |-------------------------------------|
B |-------------------------------------|
G |-------------------------------------|
D |--------------------7-----7-----7----|
A |---3-----3-----3----5-5-5-5-5-5-5-5--|
E |---1-1-1-1-1-1-1-1-------------------|

________вместе___________ ...Мы спаслись...
E |-----------------------------------|
B |-----------------------------------|
G |-----------------------------------|
D |-----------------------------------|
A |--7-----7-----7----7-----7-----7---|
E |--5-5-5-5-5-5-5-5--5-5-5-5-5-5-5-5-|

Gtr 1 and Gtr 2
...В этом замке из дождя...
E |------------------------------------------|
B |------------------------------------------|
G |------------------------------------------|
D |------------------------------------------|
A |----7-----7-(7)--7-3-----3-----3----5-----|
E |----5-5-5-5-(5)--5-1-1-1-1-1-1-1-1--3-3-3-|

...Только двое - ты и я...
E |----------------------------|
B |----------------------------|
G |----------------------------|
D |----------------------------|
A |-5-----5----2-----2-----2---|
E |-3-3-3-3-3--0-0-0-0-0-0-0-0-|

Gtr 1 and Gtr 2
...В самом одиноком
E |-------------------------------|
B |-------------------------------|
G |-------------------------------|
D |--------------------7-----7----|
A |---3-----3-----3----5-5-5-5-5--|
E |---1-1-1-1-1-1-1-1-------------|

____________месте____________ ты и я....
E |--------------------------------------|
B |--------------------------------------|
G |--------------------------------------|
D |--7-----------------------------------|
A |5-5-5--7-----7-----7----7-----7---7---|
E |-------5-5-5-5-5-5-5-5--5-5-5-5-5-5-5-|

Verse 2
Gtr 2 lead full
E |-------------------------------------------/-----------------|
B |---------------------------------------17-17r-17~--17-20-22~-|
G |-12h14-12-12/14~-12p14-12-14-17-19/21~-----------------------|
D |-------------------------------------------------------------|
A |-------------------------------------------------------------|
E |-------------------------------------------------------------|
r - release bend
Gtr 1 Riff A1 x4

Gtr 2 *
E |---17--19-20-19-19----1712-12h15p12-(12)~-|
B |---17-------------------------------------|
G |------------------------------------------|
D |------------------------------------------|
A |------------------------------------------|
E |------------------------------------------|
* - опустить рычаг, взять ноту, отпустить рычаг
Riff A1 x2
Riff A2 x1
Riff A1 x2
Riff A2 x1
Riff A3 x1
Chorus x1

Solo rhythm
Gtr 1
E |-----------------------------------------------------|
B |-----------------------------------------------------|
G |-----------------------------------------------------|
D |-----------------------------------------------------|
A |--7-7-7---3-3--5-5---7-7-7-----------3-----------5---|
E |--5-5-5---1-1--3-3---5-5-5---1-1-1-1-1---3-3-3-3-3---|

E |-------------------------------------|
B |-------------------------------------|
G |-------------------------------------|
D |-------------------------------------|
A |-7-7-7/---3-3---5-5---3-3(3)--2-2(2)-|
E |-5-5-5/---1-1---3-3---1-1(1)--0-0(0)-|

Gtr 1
E |-----------------------------------------------------|
B |-----------------------------------------------------|
G |-----------------------------------------------------|
D |-----------------------------------------------------|
A |-7-7-7---3-3--5-5---7-7-7---3-3-----------5---7-7-7--|
E |-5-5-5---1-1--3-3---5-5-5---1-1---3-3-3-3-3---5-5-5--|

E |--------------------------------------|
B |--------------------------------------|
G |--------------------------------------|
D |--------------------------------------|
A |--3-3---5-5---3-3(3)--2-2-2-2-2-2-2-2-|
E |--1-1---3-3---1-1(1)--0-0-0-0-0-0-0-0-|

Solo
Gtr 2 lead
E |---------------------------------------|
B |---------------------------------------|
G |---14~~~--14-16-17-16-14---149--(9)~---|
D |-------------------------17------------|
A |---------------------------------------|
E |---------------------------------------|

full.. full
E |------------------------/--15--/--------|
B |-----------------------15-----15-(15)~~-|
G |--14-16-17-16-14------------------------|
D |-------------------17-------------------|
A |----------------------------------------|
E |----------------------------------------|

Gtr 2 1/2 bend
E |-------------------------------------/------------|
B |---17h18p17h18p17h18p17----19h21h22-22r--18-17~~--|
G |--------------------------------------------------|
D |--------------------------------------------------|
A |--------------------------------------------------|
E |--------------------------------------------------|

full
E |----/--------------|
B |---/---------------|
G |--19--19-17-16-17~-|
D |-------------------|
A |-------------------|
E |-------------------|

Gtr 2 full
E |-----------/------------23-(23)---/----------------|
B |--22~~~~--22r--22-20-22-----------/---22-22-22-22--|
G |----------------------------------/----------------|
D |----------------------------------/----------------|
A |---------------------------------------------------|
E |---------------------------------------------------|

E |----20-----------------20-------|
B |-22----22-22--22-22-22----22-22-|
G |--------------------------------|
D |--------------------------------|
A |--------------------------------|
E |--------------------------------|

Gtr 2 full
E |-------/-------------------------------------|
B |---22-22r--22-21-22-(22)~--------22-(22)~~~~-|
G |------------------------------21-------------|
D |---------------------------------------------|
A |---------------------------------------------|
E |---------------------------------------------|

Chorus x1

Gtr 2 lead ...Ты и я...
Interlude 1/2 full 1/2
E |--------/----/-------/----------------------|
B |-------17r-17r--17--16r--16-----------------|
G |----------------------------16~-------------|
D |--------------------------------------------|
A |--------------------------------------------|
E |--------------------------------------------|

...ТЫ И Я...
1/2
E |------------/------------------------|
B |-----------/-------------------------|
G |-14-16-17-17r--17-16-1614-1412-12-10-|
D |-------------------------------------|
A |-------------------------------------|
E |-------------------------------------|

Gtr 2 ...Ты и я....
E |-------------------------------------------------|
B |-------------------------------------------------|
G |--------12----12-14~----19-17--19-21-19-19p18p16-|
D |----/14----14------------------------------------|
A |-------------------------------------------------|
E |-------------------------------------------------|

full
E |-----------------------/--------|
B |----------------------/---------|
G |-15p14p12-12p11p10---5r---5-----|
D |------------------------7---7-7-|
A |--------------------------------|
E |--------------------------------|

Gtr 1 Riff A1 x4

Ending
Gtr 1 and Gtr 2
...Ты и я....
E |------------------------------------------|
B |------------------------------------------|
G |------------------------------------------|
D |------------------------------------------|
A |--7-7-7---3-3--5-5---7-7-7/-----------3---|
E |--5-5-5---1-1--3-3---5-5-5/---1-1-1-1-1---|

...Ты и я....
E |--------------------------------|
B |--------------------------------|
G |--------------------------------|
D |--------------------------------|
A |---------5---7-7-7/---3-3---5-5-|
E |-3-3-3-3-3---5-5-5/---1-1---3-3-|

Gtr 1 and Gtr 2
...Ты и я.... ...Ты и я....
E |--------------------------|
B |--------------------------|
G |--------------------------|
D |--------------------------|
A |----3-3(3)--2-2(2)----7-7-|
E |----1-1(1)--0-0(0)----5-5-|
Добавить новый гитарный бой
Дата: 19-06-2013, 10:29, Добавил: Aurondel, Раздел: Бони неМ
Информация
Посетители, находящиеся в группе Гости, не могут оставлять комментарии к данной публикации.



Популярные песни
  • Титаник
  • Пираты карибского моря
  • Все бабы суки бабы бляди
  • Над старым аулом
  • Ламбада
  • Солдат (из к/ф Мы из будущего)
  • Мальчишка-наркоман
  • За Родину
  • Девочка не надо слезы лить напрасно
  • Орленок - Звезды


  • Облако тегов
    , 8 марта, Ария, Армия, би-2, блядь, Валерий Скутин, Война, Грусть, Дворовые, ддт, Звери, Измена, Иностранные, интересное, Кино, КиШ, Красиво, Кузя, лагерное, лагерные песни, лагерь, Лирика, Любовь, Любэ, ляпис трубецкой, Многоточие, Наутилус Помпилиус, о жизни, песня, под гитару, Приколы, Разное, Расставание, Сектор газа, Слезы, Сплин, У костра, Чиж и Ко, Школа

    Показать все теги